Oops, an error
Loading. Please wait.

Josephina Tab

version 1
version 1

Whole song

Interactive

4,746 views 9 this week
3 commentsread comments
1 2 3 4 5
1 last vote to show rating
add to favorites
launch autoscroll
font size
0
reset
how to read this tab
guitar tuner
Autoscroll
slow
fast
+/-
esc
set tempo
stop
Help us to improve Ultimate-Guitar.com Take our survey!
×
Difficulty
novice
Van Halen-Josephina
Van Halen III

This song has some great guitar work by Eddie Van Halen. It's a shame nobody liked this
I tried my best on this song, although it's not 100% correct since i've seen a few
where Eddie plays it up the neck more. But i'm no EVH so......... :D


H = Hammer-on
P = Pull Off
/ = Slide (up or down)
~ = Vibrato
(7) = Artificial Harmonic

|-7--8--7--2--3--2--5--6--5--0--1--3--2--7--8--7-|
|-8--8--8--3--3--3--6--6--6--1--1--3--3--8--8--8-|
|-7--7--7--2--2--2--5--5--5--0--0--2--2--7--7--7-|
|------------------------------------------------|
|------------------------------------------------|
|------------------------------------------------|

-2--3--2--5--6--5-----2--2--2--0--0--0--2-|
-3--3--3--6--6--6--6--3--3--3--1--1--1--3-|
-2--2--2--5--5--5--5--2--2--2--0--0--0--2-|
------------------------------------------|
------------------------------------------|
------------------------------------------|

|--2--2--2--5--5--5--5--2--2--2--0--0--0--2--|
|-3--3--1-------------------------0----------|
|-2--2--0---------------------------1--------|
|--------2---------------------2-------2-----|
|--------3--0h2h3-----------3----------------|
|------------------3--2--54------------------|

-9--10--9--10--12--11--10--12~-------------12~-10---|
-----------------------------------11h13p11---------|
----------------------------------------------------|
----------------------------------------------------|
----------------------------------------------------|
----------------------------------------------------|

------------|
------------|
------------|
------------|
--------(7)-|
-------(7)--|

Intro End. It's not 100% correct but i think it's close

|--------------(7)-|
|--------------(7)-|
|--------------(7)-|
|-(7)---(7)----(7)-|
|----(7)-------(7)-|
|--------------(7)-|

|-0----------------------------|
|-1-----------------0--1----1--|
|-2----2---2--0--2------2--2---|
|-2--2--2-------------------2--|
|------------------------------|
|------------------------------|

----------------------------------------------|
-------------------------1--1----1--1----1--1-|
----2-------2----2-----2----2--2----2--2----2-|
2--2---2---2---2---2---2--------2-------2-----|
-----------2----------------------------------|
----------------------------------------------|

------------|
----1-------|
---2--------|
------------|
------------|
------------|

|-----------------------------------|
|-1--1----1---1--------1------2-----|
|-2---2--2--2-2---------2---2---2p0-|
|-2-----2------2-----------2--------|
|-----------------0h2h3-------------|
|-----------------------------------|

|---0---------------------------------------------------|
|--1--------------0--1---1----------------1--1----1--1--|
|-2----2--2-0-2-----2--2---2-------2---2----2--2----2---|
|---2--2--2---------------2--2--2---2--2--2-------2-----|
|-----------------------------------2-------------------|
|-------------------------------------------------------|

-----------|
-1---------|
2-2--------|
-----0-----|
-----------|
-----------|

to pre-chorus
|-----------------------|
|-------1-1-1-----------|
|-2-2--2-2-2------------|
|-0-0--2-2-2------------|
|-----------------------|
|-----------------------|
Suggest correction
Give kudos to tab author, rate the tab!
1 2 3 4 5
comments
print report bad tab
3 comments total.
0 reply
MattTheHack 10 Dec 11, 2011 04:49 PM

Good tab of a cool song man, rock on!

0 reply
CinderellaFan14 231 Apr 10, 2012 11:52 PM

Awesome song, man! Thanks so much! ROCK ON!!!

0 reply
Dagumol 54 Jul 16, 2015 11:50 PM

Great song. Good job.

guest
You may want to rate the tab now too:
select rating
Wanna post a correction for this tab? Suggest correction