Oops, an error
Loading. Please wait.

Little Dreamer bass

version 2
version 2

Whole song

Interactive

1,309 views 1 this week
2 commentsread comments
1 2 3 4 5
3 more votes to show rating
add to favorites
×
Save as Personal and add changes to this tab that will be seen only by you. Learn more ›
×
You can save this tab as Personal to edit and correct it or add notes. All changes will be seen only by you. Learn more »
launch autoscroll
font size
0
reset
guitar tuner
backing track
0:00
0:00
edit
Autoscroll
slow
fast
+/-
esc
set tempo
stop
-------------------------------------------------------------------------------
			     LITTLE DREAMER - Van Halen
-------------------------------------------------------------------------------

Tabbed By : Isaias Garcia (TexasFury)

Tuning: half step down

      m.4
      H        Q       E   E      E  E  E  E  E  E  E  E     E  E  E  E  E  S S S S E
F#||---------------------------|--------------------------|-----------------------------|
C#||---------------------------|--------------------------|-----5-----------5-5-5-5-----|
G#||----------------5g10---L\--|--3-----1--3--L-----------|-----------------------------|
D#||---------------------------|-----3-----------0--1--2--|--3-----1--3--L----------5S--|


                                                         Verse 1
  E  E  E  E  E  E  E  E     E  E  E  E  E  S S E  E     E  E  E  E  E  E  E  E
--------------------------|---------------------------|--------------------------|
--------------------------|-----5-----------3-4-5--5--|--------------------------|
--------------------------|---------------------------|--3--3--3--3--3--3--3--3--|
--8--3--6--8--L--0--1--2--|--3-----1--3--L------------|--------------------------|


  E  E  E  E  E  E  E  E     E  E  E  E  E  E  E  E     E  E  E  E  E  E  E  E
--------------------------|--------------------------|--------------------------|
--------------------------|--------------------------|--------------------------|
--------------------------|--1--1--1--1--1--1--1--1--|--------------------------|
--3--3--3--3--3--3--3--3--|--------------------------|--1--1--1--1--1--1--1--1--|


  E  E  E  E  E  E  E  E     E  E  E  E  E  E  E  E     E  E  E  E  E  E  E  E
--------------------------|--------------------------|--------------------------|
--------------------------|--------------------------|--------------------------|
--3--3--3--3--3--3--3--3--|--------------------------|--1--1--1--1--1--1--1--1--|
--------------------------|--3--3--3--3--3--3--3--3--|--------------------------|


                             Chorus 1
  E  E  E  E  E  E  E  E     E  E  E  E  E  E  E  E     E  E  E  E  E  E  S S E
--------------------------|--------------------------|----------------------------|
--------------------------|--------------------------|-----5-----------5--5-5-----|
-----------------0--1--2--|--3-----1--3--L-----------|----------------------------|
--1--1--1--1--1-----------|-----3-----------0--1--2--|--3-----1--3--L---------3\--|


  E  E  E  E  E  E  E  E     E  E  S  S E  E  S S E  E     E  E  E  E  E  E  E  E
--------------------------|-----------------------------|--------------------------|
--------------------------|-----5--3h-5-5--5--5-5-------|--------------------------|
--------3-----------------|-----------------------0--1--|--3-----1--3--L-----------|
--1--1-----1--L--0--1--2--|--3--------------------------|-----3-----------0--1--2--|


  E  E  E  E  E  S S E  E     E  E  E  E  E  E  E  E     E  E  E  E  E  E  E  S S
---------------------------|--------------------------|---------------------------|
-----5-----------5-5-5--5--|--------------------------|---------------------------|
---------------------------|--------3-----------------|-----0--L--1--L--2--0--1-2-|
--3-----1--3--L------------|--1--1-----1--L--0--1--2--|--3------------------------|


  Verse 1
  E  E  E  E  E  E  E  E     E  E  E  E  E  E  E  E     E  E  E  E  E  E  E  E
--------------------------|--------------------------|--------------------------|
--------------------------|--------------------------|--------------------------|
--3--3--3--3--3--3--3--3--|--------------------------|--1--1--1--1--1--1--1--1--|
--------------------------|--3--3--3--3--3--3--3--3--|--------------------------|


  E  E  E  E  E  E  E  E      E  E  E  E  E  E  E  S S    E  E  E  E  E  E  E  E
---------------------------|---------------------------|--------------------------|
---------------------------|---------------------------|--------------------------|
---------------------------|-----------------------4-5-|--6--6--6--6--6--6--6--6--|
--1--1--1--1--1--1--1--1S--|--4--4--4--4--4--4--4------|--------------------------|


                                                         Chorus 2
  E  E  E  E  E  E  E  E      E  E  E  E  E  E  E  E     E  E  E  E  E  E  E  E
---------------------------|--------------------------|--------------------------|
---------------------------|--------------------------|--------------------------|
---------------------------|-----------------0--1--2--|--3-----1--3--L-----------|
--6--6--6--6--6--6--6--6S--|--3--3--3--3--3-----------|-----3-----------0--1--2--|


  E  E  E  E  E  E  E  E     E  E  E  E  E  E  E  E     E  E  E  E  S  S S S E  S S
--------------------------|--------------------------|------------------------------|
-----5-----------5--5-----|--------------------------|-----------------5-5-5-5--5-5-|
--------------------------|--------3-----------------|-----0--L--1--L/--------------|
--3-----1--3--L--------2--|--1--1-----1--1--0--1--2--|--3---------------------------|


  E  E  E  E  E  E  E  E     E  E  E  E  E  E  E  E     E  E  E  E  E  E  E  E
--------------------------|-----------------0--0--0--|--------------------------|
--------------------------|-----5--------------------|--------------3-----------|
--3-----1--3--L-----------|--------------------------|--------3-----------------|
-----3-----------0--1--2--|--3-----1--3--L-----3--2--|--1--1-----1--L--0--1--2--|


                               Guitar Solo
  E  E  E  E  E  E  S S S S    E   E  E  E  E  E  S S S S    E  E  E  E  E  S S E  E
----------------------------|-----------------------------|---------------------------|
--------------------5-5-3---|-----------------------------|-----5---------------------|
-----0--L--1--L--2--------5-|------------------6--6-------|--------1------------1-----|
--3-------------------------|--8S--3--6--8--L-------0-1-2-|--3--------3--3--3-3----3--|


  E  E  E  E  E  E  E  E     E  E  E  E  E  S  S E  E     E  E  E  E  E  E  E  E
--------------------------|----------------------------|--------------------------|
-----------3--3--------x--|----------------------------|--------------------------|
--------3-----------------|-----0--L--1--L--2s-3-6--5--|--3-----1--3--L-----------|
--1--1-----------1--1--2--|--3-------------------------|-----3-----------0--1--2--|


  E  E  E  E  E  E  E  E     E  E  E  E  S S E  E  S  S    E  S S S S S S S  S E   Q
--------------------------|-----------------------------|-------------------------12\----|
--------------------------|-----------3--L---3--2--3h-4-|--5--5-5-5-5-5-5-3s-5-5---------|
-----1--L--3--L--4--5-----|--------3-------3------------|--------------------------------|
--3--------------------3--|--1--1-----------------------|--------------------------------|


  Verse 3
  E  E  E  E  E  E  E  E     E  E  E  E  E  E  E  E     E  E  E  E  E  E  E  E
--------------------------|--------------------------|--------------------------|
--------------------------|--------------------------|--------------------------|
--3--3--3--3--3--3--3--3--|--------------------------|--1--1--1--1--1--1--1--1--|
--------------------------|--3--3--3--3--3--3--3--3--|--------------------------|


  E  E  E  E  E  E  E  E     E  E  E  E  E  E  E  S  S    E  E  E  E  E  E  E  E
--------------------------|----------------------------|--------------------------|
--------------------------|----------------------------|--------------------------|
--------------------------|-----------------------4s-5-|--6--6--6--6--6--6--6--6--|
--1--1--1--1--1--1--1--1--|--4--4--4--4--4--4--4-------|--------------------------|


                                                                   Chorus 3
  E  E  E  E  E  E  E  E       E   E   E   E   E   E    E   E      E  E  E  E  E  E  E  E
---------------------------|------------------------------------|--------------------------|
---------------------------|------------------------------------|--------------------------|
-----------------------6S--|--10--10--10--10--10--10S--13---L\--|--3-----1--3--L-----------|
--6--6--6--6--6--6--6------|------------------------------------|-----3-----------0--1--2--|


  E  E  E  E  E  E  E  E     E  E  E  E  E  E  E  E     E  E  E  E  E  S S E  E
--------------------------|--------------------------|---------------------------|
-----5-----------5--5-----|--------------------------|---------------------1--6--|
--------------------------|--------3-----------------|-----0--L--1--L--2-3-------|
--3-----1--3--L--------2--|--1--1-----1--1--0--1--2--|--3------------------------|


  E  E  E  E  E  E  E  E     E  E  E  E  E  E  E  E     E  E  E  E  E  E  E  S  S
--------------------------|-----------------0--0-----|----------------------------|
--------------------------|-----5--------------------|--------------3--------3s-4-|
--3-----1--3--L-----------|--------------------------|--------3-------------------|
-----3-----------0--1--2--|--3-----1--3--L-----3--2--|--1--1-----1--L--0--1-------|


  E  E  E  S S E  E  E  E     E  E  E  E  E  E  E  E     E  E  E  E  E  E  E  E
---------------------------|--------------------------|--------------------------|
--5--5--5--5-5-8--7--7--8--|--------------------------|-----5-----------5--L-----|
---------------------------|--3-----1--3--L-----------|--------------------------|
---------------6--5--5--6--|-----3-----------0--1--2--|--3-----1--3--L-----3--2--|


  E  E  E  E  E  E  E  E     E  E  E  E  E  S S E  E     E  E  E  E  E  E  E  E
--------------------------|---------------------------|--------------------------|
--------------------------|---------------------5--3--|--------------------------|
--------3-----------------|-----0--L--1--L--2-3-------|--3-----1--3--L-----------|
--1--1-----1--1--0--1--2--|--3------------------------|-----3-----------0--1--2--|


                                                        <
  S S E  E  E  H           W                   H        H           W
------------------------|-------------------|--------------------|-------------------|
----5-------------------|-------------------|--------------------|-------------------|
------------------------|-------------------|--------------------|-------------------|
--3---3--1--3-----------|-------------------|-----------1--------|--L----------------|


  W                   W                   W
-------------------|-------------------|-------------------||
-------------------|-------------------|-------------------||
-------------------|-------------------|-------------------||
--L----------------|--L----------------|--L----------------||


Duration Legend
---------------
W - whole
H - half
Q - quarter
E - 8th
S - 16th
T - 32nd
X - 64th
. - note dotted
|-n-|  - n-tuplets


Tablature Legend
----------------
L - tied note
g - grace note
> - accentuded note
h - hammer on
p - pull off
S - shift slide
s - legato slide
/ -  slide into from below or out of upwards
\ -  slide into from above or out of downwards
~ - vibrato
< - fade in
Suggest correction
Creating personal tab
Creating personal tab
You can edit any tab online and save it as your Personal.

You can edit, replace or remove any tab part or add personal notes – all changes will be seen only by you.

Personal tabs can be accessed anytime from any device, even offline.
Learn more »
Give kudos to tab author, rate the tab!
1 2 3 4 5
comments
print report bad tab
2 comments total.
0 reply
jtolbirt 10 Dec 01, 2015 09:24 PM

Hey man, what's a tied note? (L)...

0 reply
TexasFury 9,040 Dec 02, 2015 07:41 AM, edited at 12:42 pm

Ex. 1: Let's say you need to play a note value that is 3 and 1/2 beats long. There is no exact note value you can write in, so you tie two notes that add up to that value. In this case you take a dotted half note (three beats) and a half note (half beat). Using the tie, you now play this note for 3.5 beats.Ex. 2: You need to play a note two beats long, but it starts on the 4th beat of the measure. You can't extend the measure. So you write the note on beat 4 of measure one, write another note on beat 1 of measure two, then use the tie symbol to tie them together, making it two beats.

guest
You may want to rate the tab now too:
select rating
Wanna post a correction for this tab? Suggest correction