Oops, an error
Loading. Please wait.

Live Without A Net Guitar Solo Tab

46 views 15 this week
no commentswrite comment
1 2 3 4 5
2 more votes to show rating
add to favorites
launch autoscroll
font size
0
reset
how to read this tab
guitar tuner
Autoscroll
slow
fast
+/-
esc
set tempo
stop
Help us to improve Ultimate-Guitar.com Take our survey!
×
Author
Difficulty
advanced
About this tab version
I have for 10 years looked for this tab and have never been able to find it. Here it is for the first time. Was this info helpful? Yes No
e|---------------------|------------------------------------|
B|o-------2-3--3/5-2~-o|-----2-3--3/5-2---------2-3--3/5-2--|
G|------2---2--2/4-2~--|---2---2--2/4-2-------2---2--2/4-2--|
D|----2-----4--4/6-2~--|-2-----4--4/6-2-----2-----4--4/6-2--|
A|o-0-----------------o|------------------0-----------------|
E|---------------------|------------------------------------|

e|---------------------------------------------------------------|
B|-------2-3--2h3p2h3p2--0--------0-0----2-----------------------|
G|-----2---2-------------1------1---1----1--2---------0-------2--|
D|---2-----4--2h4p2h4p2--2----2-----2----2--0-----------------2--|
A|-0------------------------0----------0----------------------0--|
E|------------------------------------------2---2-2/3---3-2-0----|

e|--------------------------------------------------------------------------------|
B|-------2-3--3/5--2--------2-3--2h3p2h3p2--0---------0-0-----2-------------------|
G|-----2---2--2/4--2------2---2-------------1-------1---1-----1--2------2-------0-|
D|---2-----4--4/6--2----2-----4--2h4p2h4p2--2-----2-----2-----2--0----0-------0---|
A|-0------------------0------------------------(0)----------0---------------------|
E|---------------------------------------------------------------2--2-----2/3-----|

e|----------------------------------------------------------------------------------|
B|-----------------2-3--3/5-2--2h3p2h3p2--------------------------------------------|
G|-------2-------2---2--2/4-2-------------[5]--------------5-5~----5-5~----------2--|
D|-------2-----2-----4--4/6-2--2h4p2h4p2-------------------4-4~----3-3~----------2--|
A|-------0---0--------------------------------0-0-0-0-0--0-------0------0-3-3b4--0--|
E|-3-2p0----------------------------------------------------------------------------|

e|---------------------------------------------------------3---2~---|
B|----2h3/5=\3p2-------------------------------------------0---3~---|
G|-2----------------------0/\/\/--[7]/\/---------------2---0---2~---|
D|----2h4/6=\4p2---------------------------------------2---0---0~---|
A|----------------0/\/\/-------------------------------0---x--------|
E|--------------------------------------------/19\---------3--------|

e|-17-------17---------17~~---17-20-21----16--------------|
B|----20b22------20b22-----------------19----19b21-19~~---|
G|--------------------------------------------------------|
D|--------------------------------------------------------|
A|--------------------------------------------------------|
E|--------------------------------------------------------|

e|--------------------------------------------|
B|-17-19b21r19p17-----------------------------|
G|----------------19b21~~--19b21r19p17-19~~---|
D|--------------------------------------------|
A|--------------------------------------------|
E|--------------------------------------------|

e|--------------------------------------------------16h17h20p17~-|
B|-----------------------------------------16h17h20--------------|
G|-----------------------16h17----16h17h19-----------------------|
D|--------------16h17h19-------19--------------------------------|
A|-/19-16h17h19--------------------------------------------------|
E|---------------------------------------------------------------|

e|----------14-20p17h20p17p14----14-------------14-------------14--------------|
B|-14h17h20-------------------20----20p17h14h17----20p17p14h17----20p17h14h17--|
G|-----------------------------------------------------------------------------|
D|-----------------------------------------------------------------------------|
A|-----------------------------------------------------------------------------|
E|-----------------------------------------------------------------------------|

e|-14------------------------------------------------------------------------|
B|----20p17p14----14---------------------------------------------------------|
G|-------------17----17p16p14----14-17p16-17p16-17p16p14-16-17-16-17-16-14\--|
D|----------------------------17---------------------------------------------|
A|---------------------------------------------------------------------------|
E|---------------------------------------------------------------------------|

e|--------------------------------------------------------------------------|
B|--------------------------------------------------------------------------|
G|-----14-----14p0----12p0----11p0----9p0---7p0---5h7p5\4h5p4h5p4---4-------|
D|--------------------------------------------------------------------7p5p0-|
A|-/16----16-------14------12------11-----9-----7-----------------7---------|
E|--------------------------------------------------------------------------|

e|-------------------------------------------------|
B|-------------------------------------------------|
G|----------------------------------0/\/-[5]/\/\---|
D|-------------------------------------------------|
A|-5h7p3p0-5h7p3p0-5h7p3p0-7p3p0/\/----------------|
E|-------------------------------------------------|

                      T    T       T     T         T     T
e|------------------------------------------------------------|
B|------------------------------------------------------------|
G|-7b9r7p5h7b9r7p5-12-7-12-7p5p0-12-7-12-7p5p0--12-7--12-7b9--|
D|------------------------------------------------------------|
A|------------------------------------------------------------|
E|------------------------------------------------------------|

   T       T     T      T     T     T      T     T     T
e|-----------------------------------------------------------|
B|-----------------------------------------------------------|
G|-11-7b9-12-b9-14-b9--12-b9-14-b9-15-b9--14-b9-15-b9-17-b9--|
D|-----------------------------------------------------------|
A|-----------------------------------------------------------|
E|-----------------------------------------------------------|

    T     T     T      T     T     T      T             T    T
e|--------------------------------------------------------------------|
B|--------------------------------------------------------------------|
G|-15-b9-14-b9-15-b9--12-b9-14-b9-11-b9--12~~p9r7p5p0--12-7-12-7p5p0--|
D|--------------------------------------------------------------------|
A|--------------------------------------------------------------------|
E|--------------------------------------------------------------------|

    T    T       T    T     T   T    T    T    T
e|----------------------------------------------------|
B|----------------------------------------------------|
G|----------------------------------------------------|
D|-12-7-12-7p5p0-11-7-12-7-14-7-12-7-11-7-12-7-11~~---|
A|----------------------------------------------------|
E|----------------------------------------------------|

    T    T    T    T    T    T       T
e|--------------------------------------------|
B|--------------------------------------------|
G|--------------------------------------------|
D|--------------------------------------------|
A|-12-7-12-6-12-7-12-6-12-5-12-3b5r3-12--3~---|
E|--------------------------------------------|

e|----------------------------------------------7-8-10--------8-10-12=p10p8h10h12p|
B|---------------------------------------7h8h10--------7/8h10---------------------|
G|----------------4h5---4h5h7p5p4---4h5/------------------------------------------|
D|----------4h5h7-----7-----------7-----------------------------------------------|
A|-/7-4h5h7-----------------------------------------------------------------------|
E|--------------------------------------------------------------------------------|

e|=8h10h12p10h12p10p8\7-10p8p7----7-----------------------------------------------|
B|-----------------------------10---10p8p7---7------------------------------------|
G|-----------------------------------------9---9p8p7----7-8-7----7-8-7----7h8p7\--|
D|---------------------------------------------------10-------10-------10---------|
A|--------------------------------------------------------------------------------|
E|--------------------------------------------------------------------------------|

e|--------7-8-10---------8-10-12----------10-12-14----------12-13-15-|
B|-7h8h10--------8h10h12---------10h12h14----------12h13h15----------|
G|-------------------------------------------------------------------|
D|-------------------------------------------------------------------|
A|-------------------------------------------------------------------|
E|-------------------------------------------------------------------|

e|----------13-15-17----------15-17-19-|-----------16-17-20--|
B|-13h15h17----------15h17h19----------|o-16h17h20----------o|
G|-------------------------------------|---------------------|
D|-------------------------------------|---------------------|
A|-------------------------------------|o-------------------o|
E|-------------------------------------|--------------X8-----|

e|-20-20-19-17-|--19-20-19-17--|---------------|-------------------------------|
B|-------------|o-------------o|o-19-20-19-17-o|-19-20-19-20-19-17-19-17----17-|
G|-------------|---------------|---------------|-------------------------20----|
D|-------------|---------------|---------------|-------------------------------|
A|-------------|o-------------o|--------------o|-------------------------------|
E|-------------|-------x7------|---------x5----|-------------------------------|

e|--------------------------------------------------|
B|----------------17--------------------------------|
G|-20-19-17-19-20----20p0/\/--[5]/\/----7b9r7p5h7~--|
D|--------------------------------------------------|
A|--------------------------------------------------|
E|--------------------------------------------------|

    T      T      T      T      T      T          T          T
e|--------10-5h8--------10-5h8------------------------------------------|
B|-10-5h8--------10-5h8--------10-5h8-----------------------------------|
G|------------------------------------12-7b9r7p5-12-7b9r7p5-12-7b9r7p5--|
D|----------------------------------------------------------------------|
A|----------------------------------------------------------------------|
E|----------------------------------------------------------------------|

    T       T     T         T    T         T        T         T
e|--------------------------------------------------------------------|
B|--------------------------------------------------------------------|
G|-12-7b9--11-b9-12-b9r7p5-12-7-12-b9r7p5----------12-7p5p0-----------|
D|----------------------------------------12-7p5p0-----------12-7p5p0-|
A|--------------------------------------------------------------------|
E|--------------------------------------------------------------------|

    T    T    T    T                   T
e|----------------------------------------------|
B|----------------------------------------------|
G|----------------------------------------------|
D|----------------------------------------------|
A|-12-7-12-6-12-5-12-3b5r3==\2/3b5r3--12---3~---|
E|----------------------------------------------|

                T        T           T
e|----------|-----------17-12h15--|-17-15p14p12-|
B|-15b17~~--|o-17-12h15----------o|-------------|
G|----------|---------------------|-------------|
D|----------|---------------------|-------------|
A|----------|o-------------------o|-------------|
E|----------|------------x4-------|-------------|

    T     T           T     T              T        T           T
e|-17-15-17-15p14p12-17-15-17-15p14p12-|-----------17-12h15--|-17-15p14p12--|
B|-------------------------------------|o-17-12h15----------o|--------------|
G|-------------------------------------|---------------------|--------------|
D|-------------------------------------|---------------------|--------------|
A|-------------------------------------|o-------------------o|--------------|
E|-------------------------------------|------------x4-------|--------------|

    T              T           T           T     T    T     T      T     T
e|-17/19-15p14p12-------------------------------------------------------------|
B|----------------17\19-15p12-------------------------------------------------|
G|----------------------------16/18-14p12-------------------------------------|
D|----------------------------------------19-12-19-14-------------------------|
A|----------------------------------------------------19-12-19-14-19-10-19-12-|
E|----------------------------------------------------------------------------|

    T    T     T
e|------------------------|
B|------------------------|
G|------------------------|
D|------------------------|
A|-19-9-19-10-19-7\5b7~~--|
E|------------------------|

     T        T           T        T        T              T
e|-----------17-12h15--|----------17-12h15-17-15p14p12h15-17-15p14p12-|
B|o-17-12h15----------o|-17-12h15-------------------------------------|
G|---------------------|----------------------------------------------|
D|---------------------|----------------------------------------------|
A|o-------------------o|----------------------------------------------|
E|------------x2-------|----------------------------------------------|

    T              T              T              T           T     T
e|-15-14p12p10h14-15-14p12p10h14-15-14p12p10h14-15-14p12p10-15-14-15-14p12p10-|
B|----------------------------------------------------------------------------|
G|----------------------------------------------------------------------------|
D|----------------------------------------------------------------------------|
A|----------------------------------------------------------------------------|
E|----------------------------------------------------------------------------|

    T     T              T                  T                 T
e|-15-14-15-14p12p10h14-15-14p12p10-----|------------------|-------|
B|----------------------------------h14-|o-15-14p12p10h14-o|-15-12-|
G|--------------------------------------|------------------|-------|
D|--------------------------------------|------------------|-------|
A|--------------------------------------|------------------|-------|
E|--------------------------------------|----------x4------|-------|

    T        T                 T                     T
e|-15-10h14-15-14p12p10h14-|--15-14p12p10h14--|-----------------|
B|-------------------------|o----------------o|-h14-15-14p12p10-|
G|-------------------------|------------------|-----------------|
D|-------------------------|------------------|-----------------|
A|-------------------------|o----------------o|-----------------|
E|-------------------------|------------x2----|-----------------|

    T    T     T    T    T     T    T    T    T    T    T
e|------------------------------------------------------------|
B|-12-8-12-10-12-7-12-8-12-10-12-8-12-7-12-5-12-7-12-4-12-5~--|
G|------------------------------------------------------------|
D|------------------------------------------------------------|
A|------------------------------------------------------------|
E|------------------------------------------------------------|

    T        T        T     T               T               T            T   
e|----------17-12h15-------17/19-15p12--------------------------------------|
B|-17-12h15----------17-12-------------h15-17/19--15p12h15-19--15p12h15-20--|
G|--------------------------------------------------------------------------|
D|--------------------------------------------------------------------------|
A|--------------------------------------------------------------------------|
E|--------------------------------------------------------------------------|

             T            T             T               T
e|-----------------------19--15p12h15--22-15p12h15------------------|
B|-15p12h15-19--15p12h15---------------------------h15-17/19-15p12--|
G|------------------------------------------------------------------|
D|------------------------------------------------------------------|
A|------------------------------------------------------------------|
E|------------------------------------------------------------------|

    T                           T        T                             T
e|--------------------------------------17-12h15p12-14/15-14p12p10h14-15-14p12p10-|
B|-----------------------------17-12h15-------------------------------------------|
G|-16/18-14p12h14p12h14p12h14-----------------------------------------------------|
D|--------------------------------------------------------------------------------|
A|--------------------------------------------------------------------------------|
E|--------------------------------------------------------------------------------|

        T            T    T     T    T    T     T    T    T    T    T    T
e|-----------------------------------------------------------------------------|
B|-h14-15-14p12p10--12-8-12-10-12-7-12-8-12-10-12-8-12-7-12-5-12-7-12-4-12-5~--|
G|-----------------------------------------------------------------------------|
D|-----------------------------------------------------------------------------|
A|-----------------------------------------------------------------------------|
E|-----------------------------------------------------------------------------|

    T    T    T    T       T    T    T     T    T    T    T    T    T
e|-12-5-12-7-12-8-12-8/10-12-7-12-8-12-10-12-8-12-7-12-5-12-7-12-4-12-5~-|
B|-----------------------------------------------------------------------|
G|-----------------------------------------------------------------------|
D|-----------------------------------------------------------------------|
A|-----------------------------------------------------------------------|
E|-----------------------------------------------------------------------|

    T    T    T    T       T    T    T     T    T    T    T    T    T
e|----------------------------------------------------------------------|
B|-12-5-12-7-12-8-12-8/10-12-7-12-8-12-10-12-8-12-7-12-5-12-7-12-4-12-5-|
G|----------------------------------------------------------------------|
D|----------------------------------------------------------------------|
A|----------------------------------------------------------------------|
E|----------------------------------------------------------------------|

    T    T    T    T       T    T    T     T    T    T    T    T    T
e|-12-5-12-7-12-8-12-8/10-12-7-12-8-12-10-12-8-12-7-12-5-12-7-12-4-12-5~-|
B|-----------------------------------------------------------------------|
G|-----------------------------------------------------------------------|
D|-----------------------------------------------------------------------|
A|-----------------------------------------------------------------------|
E|-----------------------------------------------------------------------|

    T    T    T    T       T    T    T     T    T    T    T    T
e|-----------------------------------------------------------------|
B|-12-5-12-7-12-8-12-8/10-12-7-12-8-12-10-12-8-12-7-12-5-12-7-12-4-|
G|-----------------------------------------------------------------|
D|-----------------------------------------------------------------|
A|-----------------------------------------------------------------|
E|-----------------------------------------------------------------|

    T    T    T    T       T    T    T     T    T    T    T    T    T
e|----------------------------------------------------------------------|
B|-12-5-12-7-12-8-12-8/10-12-7-12-8-12-10-12-8-12-7-12-5-12-7-12-4-12-5-|
G|----------------------------------------------------------------------|
D|----------------------------------------------------------------------|
A|----------------------------------------------------------------------|
E|----------------------------------------------------------------------|

   T   T   T   T   T   T   T   T   
e|----------------------------------------------------------------------------|
B|----------------------------------------------------------------------------|
G|-9-4-9-5-9-2-9-4-------------------------------------------[2]/\/\/---------|
D|-----------------9-2-9-4----------------------------------------------------|
A|-------------------------9-2-9-3/7\5/10\7/12\10/17\14~~~--------------------|
E|---------------------------------------------------------------------0/\/\/-|

e|------------12-12-12-12-16-19-17-16-17-14-16--12-|
B|---15b17~~---------------------------------------|
G|-------------------------------------------------|
D|-------------------------------------------------|
A|-------------------------------------------------|
E|-------------------------------------------------|
                          Tremolo Picking

e|---16-19-17-16-17-14-16--12-12-12-14-12/10-10-10-12-10\9-9-9-10-|
B|----------------------------------------------------------------|
G|----------------------------------------------------------------|
D|----------------------------------------------------------------|
A|----------------------------------------------------------------|
E|----------------------------------------------------------------|
   
e|---9\7-7\5--5-5-7-5\3-3-3-5-3\1-1-1-1-1-1-1-1h3p1p0-0-----------|
B|------------------------------------------------------3p1p0-1---|
G|----------------------------------------------------------------|
D|----------------------------------------------------------------|
A|----------------------------------------------------------------|
E|----------------------------------------------------------------|

e|----------------------------------------------------------------|
B|------------------------------------------------X---------------|
G|---2b1/2r(2)p1----------------------------------X---------------|
D|------------------------------------------------X----5h7-7-7-7--|
A|--------------------------------------------------/7------------|
E|----------------/20--0/\/\/\------------------------------------|
                    
e|------------------------------------------------------------------|
B|--------------------------6---5-------8p0-7-5h7p5h7p5h7p5h7p5h7p5-|
G|-----5p0----------5p0-----------7p0-5-----------------------------|
D|---7-----7-7-7-7------7/8---8-------------------------------------|
A|------------------------------------------------------------------|
E|------------------------------------------------------------------|

e|--------------------------------------------------------------|
B|--------------------------------------------------------------|
G|----------------------------------5p0-4-------7p0-6-4h6p4h6p4-|
D|----------------5p0---7-----5p0---------7-4-4-----------------|
A|------5h7-7-7-7-----7---7-7-----7-----------------------------|
E|--3/7---------------------------------------------------------|

e|----------------------------------------------------------------|
B|-------------------------------------------6pX-5-------8p0-7----|
G|---------------------------5p0-------5p0-3-------7p0-5----------|
D|-h6p4h6p4p0----5h7-7-7-7-7-----7-7-7----------------------------|
A|------------/7--------------------------------------------------|
E|----------------------------------------------------------------|

e|---------------------------------------------------|
B|---5h7p5h7p5h7-5\3h5p3h5\3-1h3p1h3p1p0h2p0h2p0h2---|
G|---------------------------------------------------|
D|---------------------------------------------------|
A|---------------------------------------------------|
E|---------------------------------------------------|

      T      T     T     T     T     T     T      T      T      T
e|-------------------------------------------------------------------|
B|----9p2h5-9p2h5-9p2h5-9p2h5-9p2h5-9p2h5-10p2h5-10p2h5-10p2h5-10p2h5|
G|-------------------------------------------------------------------|
D|-------------------------------------------------------------------|
A|-------------------------------------------------------------------|
E|-------------------------------------------------------------------|

     T      T      T      T      T      T      T      T      T
e|-------------------------------------------------------------------|
B|---10p2h5-10p4h7-10p4h7-10p4h7-10p4h7-12p4h7-12p4h7-12p5h9-12p5h9--|
G|-------------------------------------------------------------------|
D|-------------------------------------------------------------------|
A|-------------------------------------------------------------------|
E|-------------------------------------------------------------------|

     T      T      T      T      T      T      T      T      T
e|-------------------------------------------------------------------|
B|---12p5h9-12p5h9-12p5h9-13p5h8-13p5h8-13p5h8-13p5h8-15p5h8-15p5h8--|
G|-------------------------------------------------------------------|
D|-------------------------------------------------------------------|
A|-------------------------------------------------------------------|
E|-------------------------------------------------------------------|

     T       T       T       T       T       T       T       T
e|-------------------------------------------------------------------|
B|---15p7h10-15p7h10-15p7h10-15p7h10-17p7h10-17p7h10-17p12p9-17p12p9-|
G|-------------------------------------------------------------------|
D|-------------------------------------------------------------------|
A|-------------------------------------------------------------------|
E|-------------------------------------------------------------------|

     T       T       T       T       T       T       T  
e|-------------------------------------------------------------------|
B|---17p12p9-17p12p9-17p12p9-17p9h12-17p9h12-17p9h12-17p12-----------|
G|-------------------------------------------------------------------|
D|-------------------------------------------------------------------|
A|-------------------------------------------------------------------|
E|-------------------------------------------------------------------|

     T        T        T        T        T        T       T
e|-------------------------------------------------------------------|
B|---17p12h15-17p11h14-17p11h14-17p10h13-17p10h13-17p9h12-17p9h12/15-|
G|-------------------------------------------------------------------|
D|-------------------------------------------------------------------|
A|-------------------------------------------------------------------|
E|-------------------------------------------------------------------|

     T        T        T        T        T        T        T
e|-------------------------------------------------------------------|
B|---17p12h15-17p12h15-17p11h14-17p11h14-17p10h13-17p10h13-17p9h12---|
G|-------------------------------------------------------------------|
D|-------------------------------------------------------------------|
A|-------------------------------------------------------------------|
E|-------------------------------------------------------------------|

     T       T        T        T       T       T       T       T
e|--------------------------------------------------------------------|
B|---17p9h12-15p10h13-15p10h13-15p9h12-15p9h12-15p8h11-15p8h11-15p7h10|
G|--------------------------------------------------------------------|
D|--------------------------------------------------------------------|
A|--------------------------------------------------------------------|
E|--------------------------------------------------------------------|

     T          T       T       T       T       T      T      T
e|--------------------------------------------------------------------|
B|---15p7h10/13-14p8h11-13p8h11-13p7h10-13p7h10-13p6h9-13p6h9-13p5h8--|
G|--------------------------------------------------------------------|
D|--------------------------------------------------------------------|
A|--------------------------------------------------------------------|
E|--------------------------------------------------------------------|

     T      T      T      T      T      T      T      T      T
e|--------------------------------------------------------------------|
B|---13p5h8-12p4h7-12p4h7-12p4h7-12p4h7-12p4h7-12p5h8-12p5h8-12p5h8---|
G|--------------------------------------------------------------------|
D|--------------------------------------------------------------------|
A|--------------------------------------------------------------------|
E|--------------------------------------------------------------------|

     T      T      T      T      T      T      T      T      T
e|--------------------------------------------------------------------|
B|---12p5h8-12p5h8-12p4h7-12p4h7-12p4h7-12p4h7-12p4h7-12p5h8-12p4h7---|
G|--------------------------------------------------------------------|
D|--------------------------------------------------------------------|
A|--------------------------------------------------------------------|
E|--------------------------------------------------------------------|

     T      T      T      T      T      T      T      T       T
e|------------------------------------------------------------------|
B|---12p4h7-12p4h7-12p4h7-12p5h8-12p4h7-12p4h7-12p4h7-12p4h7-12-5---|
G|------------------------------------------------------------------|
D|------------------------------------------------------------------|
A|------------------------------------------------------------------|
E|------------------------------------------------------------------|



************************************

| x    Dead note
| (n)  Ghost note
| h    Hammer-on
| p    Pull-off
| r    Release
| b    Bend
| /    Slide up
| \    Slide down
| ~    Vibrato
| o    reprise

************************************
Suggest correction
Give kudos to tab author, rate the tab!
1 2 3 4 5
comments
print report bad tab
guest
You may want to rate the tab now too:
select rating
Wanna post a correction for this tab? Suggest correction