Oops, an error
Loading. Please wait.

Panama Bass Tab

version 1
version 1

Whole song

Interactive

52,094 views 66 this week
9 commentsread comments
1 2 3 4 5
x 24
add to favorites
launch autoscroll
font size
0
reset
guitar tuner
backing track
0:00
0:00
×
Best way to learn
"Panama"
Autoscroll
slow
fast
+/-
esc
set tempo
stop
[Intro]
(part one):

G||-------------------------|--------------------------|-------------2-----------|
D||-------------------------|--------------------------|-------------------------|
A||--4----4--4--4--4--4--4--|--4--4--4--4--4--4--2--2--|--2--0----0-----0--0--0--|
E||-------------------------|--------------------------|-------------------------|


G|--------------------------||
D|--------------------------||
A|--0--0--0--0--0--0--0--4--|| 
E|--------------------------||(x2)

[Intro]
(part two)

G||-------------------|-------------------------|
D||-------------------|-------------------------|
A||-------------------|-------------------------|
E||----------------0--|----0--0--0--0--0--0--0--|


G|-------------------------|--------------------------|-------------------------|
D|-------------------------|--------------------------|-------------------------|
A|--------------0----------|--------------------------|--------------0----------|
E|--0--0--0--0-----3----0--|--0--0--0--0--0--0--0--0--|--0--0--0--0-----3----0--|


G|--------------------------|-------------------------|--------------------------|
D|--------------------------|-------------------------|--------------------------|
A|--------------------------|--------------0----------|--------------------------|
E|--0--0--0--0--0--0--0--0--|--0--0--0--0-----3----0--|--0--0--0--0--0--0--0--0--|


G|--------------------------||
D|-----------------0--1--2--||
A|--------0--1--2-----------||
E|--0--4--------------------||

[Verse]

G||--------------------------|--------------------------|
D||--------------------------|--------------------------|
A||--------------------------|--------------------------|
E||--0--0--0--0--0--0--0--0--|--0--0--0--0--0--0--0--0--|


G|--------------------------|--------------------------||
D|--------------------------|--------------------------||
A|--------------------------|--------------------------||
E|--0--0--0--0--0--0--0--0--|--0--0--0--0--0--0--0--0--||

[Pre-Chorus]

G||------------------------|--------------------------|
D||---------------4--4--4--|--4--4--4--4--------------|
A||------------------------|-----------------1--2--3--|
E||--2----2----2-----------|--------------2-----------|


G|-----------------------|--------------------------|
D|-----------------------|--------------------------|
A|--4----4----4----4-----|--4-----4--4--4--4--4--4--|
E|--------------------4--|-----4--------------------|


G|----------------------|-----------------------||
D|----0-----------------|-----------------------||
A|-------1--0--------3--|--------------------2--||
E|----------------------|--4--3------2----0-----||

[Chorus 1] 
(almost the same shit as Intro 2)

G||-------------------|-------------------------|-------------------------|
D||-------------------|-------------------------|-------------------------|
A||-------------------|-------------------------|-------------------------|
E||----------------0--|----0--0--0--0--0--0--0--|--0--0--0--0--0--3----0--|


G|--------------------------|-------------------------|--------------------------|
D|--------------------------|-------------------------|--------------------------|
A|--------------------------|-------------------------|--------------------------|
E|--0--0--0--0--0--0--0--0--|--0--0--0--0--0--3----0--|--0--0--0--0--0--0--0--0--|


G|-------------------------|--------------------------|--------------------------||
D|-------------------------|--------------------------|--------------------------||
A|-------------------------|--------------------------|--------0--2----0---------||
E|--0--0--0--0--0--3----0--|--0--0--0--0--0--0--0--0--|--0--3--------3---3----0--||

[Chorus 2]

G||-------------------|-------------------------|-------------------------|
D||-------------------|-------------------------|-------------------------|
A||-------------------|-------------------------|-------------------------|
E||----------------0--|----0--0--0--0--0--0--0--|--0--0--0--0--0--3----0--|


G|--------------------------|-------------------------|--------------------------|
D|--------------------------|-------------------------|--------------------------|
A|--------------------------|-------------------------|--------------------------|
E|--0--0--0--0--0--0--0--0--|--0--0--0--0--0--3----0--|--0--0--0--0--0--0--0--0--|


G|-------------------------|--------------------------|-----------------------||
D|-------------------------|--------------------------|-----------------------||
A|-------------------------|-----------------0--2--3--|----2----0----3--0--2--||
E|--0--0--0--0--0--3----0--|--0--0--0--0--0-----------|-----------------------||

[Solo]

G||-------------------------|-------------------------|--------4-----------------|
D||-------------------------|-------2-----------------|--------------------------|
A||----2--2--2--2--3--4-----|----------------0--1--2--|--2--2-----2--2--3--4-----|
E||----------------------0--|----0-----0--3-----------|-----------------------0--|


G|-------------------------|--------------------------|--------------------------|
D|-------------------------|-----------------0--2-----|--------2--------0--------|
A|----------0--2-----0--2--|--2--2--2--2--2-----------|--------------------4--3--|
E|----0--3--------3--------|-----------------------0--|--0--0-----0--0-----------|


G|--------5-----------------|------------------------|-------------------||
D|-----------------------0--|----0--0----0-----------|-------------------||
A|--3--3-----3--3--3--4-----|---------------3--------|-------------------||
E|--------------------------|------------------3--2--|--0----------------||

[Bridge]

G||--------------------------|--------------------------|
D||--------------------------|--------------------------|
A||--------------------------|--------------------------|
E||--0--0--0--0--0--0--0--1--|--1--1--1--1--1--1--1--2--|


G|--------------------------|--------------------------|
D|--------------------------|--------------------------|
A|--------------------------|--------------------------|
E|--2--2--2--2--2--2--2--3--|--3--3--3--3--3--3--3--4--|


G|--------------------------|--------------------------|
D|--------------------------|--------------------------|
A|-----------------------0--|--0--0--0--0--0--0--0--1--|
E|--4--4--4--4--4--4--4-----|--------------------------|


G|--------------------------|--------------------------|-------------------||
D|--------------------------|--------------------------|-------------------||
A|--1--1--1--1--1--1--1--2--|--2--2--2--2--2--2--0--2--|-------------------||
E|--------------------------|--------------------------|----------------0--||

[Chorus 3]

G||-------------------------|-------------------------|--------------------------|
D||-------------------------|-------------------------|--------------------------|
A||-------------------------|-------------------------|--------------------------|
E||----0--0--0--0--0--0--0--|--0--0--0--0--0--3----0--|--0--0--0--0--0--0--0--0--|


G|-------------------------|--------------------------|-------------------------|
D|-------------------------|--------------------------|-------------------------|
A|-------------------------|--------------------------|-------------------------|
E|--0--0--0--0--0--3----0--|--0--0--0--0--0--0--0--0--|--0--0--0--0--0--3----0--|


G|-------------------------|-------------------------|--------------------------|
D|-------------------------|-----------------0-------|--------------------------|
A|-------------------------|--------0--0--2----------|--------------------------|
E|----0--0--0--0--0--0--0--|--0--3----------------0--|--0--0--0--0--0--0--0--0--|


G|--------------------------|--------------------------|------------------------||
D|--------------------------|--------------------------|------------------------||
A|----------------0---------|--------------------------|--------------2---------||
E|--0--0--0--0--3---3----0--|--0--0--0--0--0--0--0--0--|--0--0--0--0-----3------||
Suggest correction
comments
print report bad tab
9 comments total. Showing first comments.
+1 reply
saturns_bassman 789 Mar 23, 2005 07:00 PM

watch ur mouth dude,nice tab

+1 reply
Trymond 10 Feb 27, 2008 04:05 PM

yes little children might read this

+1 reply
playinbass1432 1,442 Oct 06, 2008 06:39 PM

As if children have never read/head swear words in their life...

Anyway, this tab is awesome. It's missing a few of the little fills but it's still great. 5 stars :)

guest
You may want to rate the tab now too:
select rating
Wanna post a correction for this tab? Suggest correction