Oops, an error
Loading. Please wait.

Panama Bass

version 1
version 1

Whole song

Interactive

1,462 views 81 this week
no commentswrite comment
1 2 3 4 5
1 last vote to show rating
add to favorites
launch autoscroll
font size
0
reset
guitar tuner
backing track
0:00
0:00
×
Best way to learn
"Panama"
Autoscroll
slow
fast
+/-
esc
set tempo
stop
Author
Difficulty
Tuning
intermediate
D# G# C# F#
Van Halen: Panama                       Eb Tuning
Guitar Intro

Intro Part 1:
|--------|
|--------|
|-17\----|
|--------|

|--------------------------------------------------------------|
|--------------------------------------------------------------|
|-4~-4-4-4-4-4-4-4-4-4-4-4-4-4-4-2-0--0~-0-0-0-0-0-0-0-0-0-0-0-|
|--------------------------------------------------------------|

|--------------------------------------------------------------|
|--------------------------------------------------------------|
|-4~-4-4-4-4-4-4-4-4-4-4-4-4-4-4-2-0--0~---0-0-0-0-0-0-0-----2-|
|----------------------------------------2---------------4-5---|

Rest

Intro Part 2
|--------------------------------|
|--------------------------------|
|--------------------------------|
|-0~-0-0-0-0-0-0-0-0-0-0-0-0h3~--|

|--------------------------------|
|--------------------------------|
|--------------------------2-----|
|-0~-0-0-0-0-0-0-0-0-0-0-0---3~--|

|--------------------------------|
|--------------------------------|
|--------------------------------|
|-0~-0-0-0-0-0-0-0-0-0-0-0-0h3~--|

|--------------------------------|
|--------------------------------|
|----------------------------5-7-|
|-0~-0-0-0-0-0-0-0-0-4-5-6-7-----|

Verse
|---------------------------------|
|---------------------------------|
|---------------------------------|3x
|-0-0-0-0-0-0-0-0-0-0-0-0-0-0-0-0-|

|---------------------------------|
|---------------------------------|
|---------------------------------|
|-0-0-0-0-0-0-0-0-0-0-12\\\\\\\\\-|

Pre-Chorus 1
|--------------------------------|
|----------4-----4---------------|
|--------------------------0-2-3-|
|-2~-2-2-2---2-2---2-2-2-2-------|

|--------------------------------|
|--------------------------------|
|-4~-4-4-4-4-4-2-4-2-4~/---------|
|--------------------------------|

|--------------------------------|
|--------------------------------|
|-5-----------3----------------2-|
|---6-5~--------4-3~-----2~-0----|
|--------------------------------|

|--------------------------------|
|--------------------------------|
|--------------------------------|
|----------------------------12\-|


Chorus 1:
|--------------------------------|
|--------------------------------|
|--------------------------------|3x
|-0~-0-0-0-0-0-0-0-0-0-0-0-0h3~--|

|--------------------------------|
|--------------------------------|
|--------------------------------|
|-0~-0-0-0-0-0-0-0-0-4-5-6-7\--0-|

Repeat: Verse
        
Pre-Chorus 2
|--------------------------------|
|----------4---------------4-----|
|------------------4---------2-3-|
|-2~-2-2-2---2-2-2---2-2-2-------|

|--------------------------------|
|--------------------------------|
|-4~-4-4-4-4-4-4-4---4~-------4/-|
|------------------4-------------|

|--------------------------------|
|--------------------------------|
|-5-----------3----------------2-|
|---6-5~--------4-3~-----2~-0----|

Rest

Chorus 2:
|--------------------------------|
|--------------------------------|
|--------------------------------|
|-0~-0-0-0-0-0-0-0-0-0-0-0-0h3~--|

|--------------------------------|
|--------------------------------|
|--------------------------2-----|
|-0~-0-0-0-0-0-0-0-0-0-0-0---3~--|

|--------------------------------|
|--------------------------------|
|--------------------------------|
|-0~-0-0-0-0-0-0-0-0-0-0-0-0h3~--|

|--------------------------------|
|--------------------------------|
|--------------0-2-3~-2~-0~-3p0--|
|-0~-0-0-0-0-0-------------------|

Solo:
|-------4-------------------------|
|-----------------------2---------|
|-2~--2---2-2-3-4-------------0-1-|
|-----------------0~--0---0-3-----|

|-------4-------------------------|
|---------------------------------|
|-2~--2---2-2-3-4-----------------|
|-----------------0~--0-3-5-7-3~--|

|-------4-------------------------|
|-------------0-2-------2---------|
|-2~--2---2-2-----------------5-4-|
|-----------------0-0-0---0-0-----|

|-------5-------------------------|
|---------------------------------|
|-3-3-3---3-3-3-4-5-5-5-5-5-------|
|---------------------------7-5-3-|


Bridge
|-----------------------------------------------------------------|
|-----------------------------------------------------------------|
|-----------------------------5-4-3~-----------3---3~-------------|
|-0~-----------------------------------------3---3------------3-2-|

|-----------------------------------------------------------------|
|--------------------------------------------3-3------------------|
|-------------5h7~-------------5\----------------3----------------|
|-0~------------------------------1~---------------1~-------------|

|-----------------------------------------------------------------|
|-----------------------------------------------------------------|
|-----------------------------5-4-3~-----------3---3~-------------|
|-0~-----------------------------------------3---3------------3-2-|

|-----------------------------------------------------------------|
|-----------------------------------------------------------------|
|---------------5-7-5-------------3-3-3-3-3-3-3-3-3-3-3-3-3-3-----|
|-0-0-0-0-0-0-0-------0-0-0-0-0-0-----------------------------3-2-|

|---------------------------7h9~--------------------------5-------|
|-----------------------------------------------------------------|
|---------------------------------3-3-3-3-3-3-3-3-3-3-3-3---3-----|
|-0-0-0-0-0-0-0-0-0-0-0-0-0-----------------------------------3~--|

|-----------------------------------------------------------------|
|-----------------------------------------------------------------|
|-----------------------------7-5-3-3-3-3-3-3-3-3-3-3-3-3-3-3-----|
|-0-0-0-0-0-0-0-0-0-0-0-0-0-0---------------------------------3\--|

Final Pre-Chorus
|-----------------------------------------------------------------|
|-----------------------------------------------------------------|
|-----------------------------------------------------------------|
|-0-0-0-0-0-0-0-0-1-1-1-1-1-1-1-1-2-2-2-2-2-2-2-2-3-3-3-3-3-3-3-3-|

|-------------------------------------------------------------------|
|-------------------------------------------------------------------|
|-------------------------------------------------------------------|
|-4-4-4-4-4-4-4-4-5-5-5-5-5-5-5-5-6-6-6-6-6-6-6-6-7-7-7-7-7-7-7-5-7-|

Rest

Final Chorus
|--------------------------------|
|----------2---------------------|
|--------------------------------|
|-0~-0-0-0---0-0-0-0-0-0-0-0h3~--|

|--------------------------------|
|--------------------6-5---------|
|--------------------------------|
|-0~-0-0-0-0-0-0-0-0-----0-4-3~--|

|--------------------------------|
|--------------------------------|
|--------------------------------|
|-0~-0-0-0-0-0-0-0-0-0-0-0-0h3~--|

|--------------------------------|
|--------------------------------|
|----------------------------5~--|
|-0~-0-0-0-0-0-0-0-0-4-5-6-7-----|

|--------------------------------|
|--------------------------------|
|--------------------------2-----|
|-0~-0-0-0-0-0-0-0-0-0-0-0---3~--|

|--------------------------------|
|--------------------------9-----|
|----------------------------10\-|
|-0~-0-0-0-0-0-0-0-0-0-0-0-------|



Suggest correction
Give kudos to tab author, rate the tab!
1 2 3 4 5
comments
print report bad tab
guest
You may want to rate the tab now too:
select rating
Wanna post a correction for this tab? Suggest correction