Oops, an error
Loading. Please wait.

Runaround bass

version 1
version 1

Whole song

  • Full Bass Version of Runaround, for 5 String Bass.... Show more

Interactive

38 views 1 this week
1 commentread comment
1 2 3 4 5
2 more votes to show rating
add to favorites
×
Save as Personal and add changes to this tab that will be seen only by you. Learn more ›
×
You can save this tab as Personal to edit and correct it or add notes. All changes will be seen only by you. Learn more »
launch autoscroll
font size
0
reset
guitar tuner
edit
Autoscroll
slow
fast
+/-
esc
set tempo
stop
About this tab version
Full Bass Version of Runaround, for 5 String Bass. Please rate or comment. See this video of Michael playing 5 string while touring for that record: https://www.youtube.com/watch?v=Aje4vQBc_04. Was this info helpful? Yes No
Van Halen - Runaround (Album Version)
Tuning - 5 String Bass (Ab Eb Ab Db Gb)
tabbed by jjhand


[Intro]
   Guitar plays intro for 8 bars, then Bass starts

   (0:15) play eighths, except few times where rhythm changes
Gb|-------------------------|-------------------------|-------------------------|-------------------------|
Db|-------------------------|-------------------------|-------------------------|-------------------------|
Ab|-------------------------|-------------------------|-------------------------|-------------------------|
Eb|-5--5--5--5--5--5--5--5--|-5--5--5--5--5--5--5--5--|-5--5--5--5--5--5--5--5--|-5--5--5--5--5--5--5--5--|
Ab|-------------------------|-------------------------|-------------------------|-------------------------|

Gb|-------------------------|-------------------------|-------------------------|-------------------------|
Db|-------------------------|-------------------------|-------------------------|-------------------------|
Ab|-------------------------|-------------------------|-------------------------|-------------------------|
Eb|-5--5--5--5--5--5--5--5--|-5--5--5--5--5--5--5--5--|-5--5--5--5--5--5--5--5--|-5--5--5--5--5--3~-------|
Ab|-------------------------|-------------------------|-------------------------|-------------------------|



[Verse]

Gb|-------------------------|-------------------------|-------------------------|-------------------------|
Db|-------------------------|-------------------------|-------------------------|-------------------------|
Ab|-------------------------|-------------------------|-------------------------|-------------------------|
Eb|-5--5--5--5--5--5--5--5--|-5--5--5--5--5--5--5--5--|-5--5--5--5--5--5--5--5--|-5--5--5--5--5--5--5--5--|
Ab|-------------------------|-------------------------|-------------------------|-------------------------|

Gb|-------------------------|-------------------------|-------------------------|-------------------------|
Db|-------------------------|-------------------------|-------------------------|-------------------------|
Ab|-------------------------|-------------------------|-------------------------|-------------------------|
Eb|-5--5--5--5--5--5--5--5--|-5--5--5--5--5--5--5--5--|-5--5--5--5--5--5--5--5--|-5--------------0--3--5--|
Ab|-------------------------|-------------------------|-------------------------|----0--3--4--5-----------|

   (0:45) Intro repeats
Gb|-------------------------|-------------------------|-------------------------|-------------------------|
Db|-------------------------|-------------------------|-------------------------|-7--7--7--7--7-----------|
Ab|-------------------------|-------------------------|-------------------------|-------------------------|
Eb|-5--5--5--5--5--5--5--5--|-5--5--5--5--5--5--5--5--|-5--5--5--5--5--5--5--5--|----------------3--------|
Ab|-------------------------|-------------------------|-------------------------|-------------------------|

    Vocals return
Gb|-------------------------|-------------------------|-------------------------|-------------------------|
Db|-------------------------|-------------------------|-------------------------|-------------------------|
Ab|-------------------------|-------------------------|-------------------------|-------------------------|
Eb|-5--5--5--5--5--5--5--5--|-5--5--5--5--5--5--5--5--|-5--5--5--5--5--5--5--5--|-5--5--5--5--5--5--5--5--|
Ab|-------------------------|-------------------------|-------------------------|-------------------------|

Gb|-------------------------|-------------------------|-------------------------|-------------------------|
Db|-------------------------|-------------------------|-------------------------|-------------------------|
Ab|-------------------------|-------------------------|-------------------------|-------------------------|
Eb|-5--5--5--5--5--5--5--5--|-5--5--5--5--5--5--5--5--|-5--5--5--5--5--5--5--5--|-5--------------0--3--5--|
Ab|-------------------------|-------------------------|-------------------------|----0--3--4--5-----------|



[Prechorus]
Gb|-------------------------|-------------------------|-------------------------|-------------------------|
Db|-------------------------|-------------------------|-------------------------|-------------------------|
Ab|-------------------------|-------7-----------7-----|-9-----------------------|-------7-----------7--5--|
Eb|-------------------------|-------------------------|-------------10----------|-------------------------|
Ab|-4-----------5-----------|-7--7--------7--7--------|-------------------------|-7--7--------7--7--------|

Gb|-------------------------|-------------------------|-------------------------|-------------------------|
Db|-------------------------|-------------------------|-------------------------|-------------------------|
Ab|-4-----------5-----------|-7-----------------------|-------------------------|-------------------------|
Eb|-------------------------|-------------------------|----------------10h12--0-|-0--0--0--12-12-12-12----|
Ab|-------------------------|-------------9-------11--|-12-12-12-12-12----------|-------------------------|



[Chorus]
Gb|-------------------------|-------------------------|-------------------------|-------------------------|
Db|-------------------------|----7--7--7--7--7--7--7--|-------------------------|-------------------------|
Ab|-------------------------|-------------------------|-------------------------|----------5--5--5--5--5--|
Eb|-5--5--5--5--5--5--5--5--|-5-----------------------|-5--5--5--5--5--5--5--5--|-5--5--5-----------------|
Ab|-------------------------|-------------------------|-------------------------|-------------------------|

Gb|-------------------------|-------------------------|-------------------------|-------------------------|
Db|-------------------------|-------------------------|-------------------------|-------------------------|
Ab|-------------------------|-------------------------|----------------5--5-----|----------5-----5--------|
Eb|-5--5--5--5--5--5--5--5--|-5--5--5--5--5--5--5--5--|-5--5--5--5--5--------3--|----3-----------------5--|
Ab|-------------------------|-------------------------|-------------------------|-------------------------|



[Verse 2]
Gb|-------------------------|-------------------------|-------------------------|-------------------------|
Db|-------------------------|-------------------------|-------------------------|-------------------------|
Ab|-------------------------|-------------------------|-------------------------|-------------------------|
Eb|-5--5--5--5--5--5--5--5--|-5--5--5--5--5--5--5--5--|-5--5--5--5--5--5--5--5--|-5--5--5--5--5--5--5--5--|
Ab|-------------------------|-------------------------|-------------------------|-------------------------|

Gb|-------------------------|-------------------------|-------------------------|-------------------------|
Db|-------------------------|-------------------------|-------------------------|-------------------------|
Ab|-------------------------|-------------------------|-------------------------|-------------------------|
Eb|-5--5--5--5--5--5--5--5--|-5--5--5--5--5--5--5--5--|-5--5--5--5--5--5--5--5--|-5--------------0--3--5--|
Ab|-------------------------|-------------------------|-------------------------|----0--3--4--5-----------|



[Prechorus 2]

Gb|-------------------------|-------------------------|-------------------------|-------------------------|
Db|-------------------------|-------------------------|-------------------------|-------------------------|
Ab|-------------------------|-------7-----------7-----|-9-----------------------|-------7-----------7--5--|
Eb|-------------------------|-------------------------|-------------10----------|-------------------------|
Ab|-4-----------5-----------|-7--7--------7--7--------|-------------------------|-7--7--------7--7--------|

Gb|-------------------------|-------------------------|-------------------------|-------------------------|
Db|-------------------------|-------------------------|-------------------------|-------------------------|
Ab|-4-----------5-----------|-7-----------------------|-------------------------|-------------------------|
Eb|-------------------------|-------------------------|----------------10h12--0-|-0--0--0--12-12-12-12----|
Ab|-------------------------|-------------9-------11--|-12-12-12-12-12----------|-------------------------|



[Chorus]
Gb|-------------------------|-------------------------|-------------------------|-------------------------|
Db|-------------------------|----7--7--7--7--7--7--7--|-------------------------|-------------------------|
Ab|-------------------------|-------------------------|-------------------------|----------5--5--5--5--5--|
Eb|-5--5--5--5--5--5--5--5--|-5-----------------------|-5--5--5--5--5--5--5--5--|-5--5--5-----------------|
Ab|-------------------------|-------------------------|-------------------------|-------------------------|

Gb|-------------------------|-------------------------|-------------------------|-------------------------|
Db|-------------------------|-------------------------|-------------------------|-------------------------|
Ab|-------------------------|-------------------------|-------------------------|----------5--5--5--5-----|
Eb|-5--5--5--5--5--5--5--5--|-5--5--5--5--5--5--5--5--|-5--5--5--5--5--5--5--5--|-5--5--5--------------5--|
Ab|-------------------------|-------------------------|-------------------------|-------------------------|



[Guitar Solo] 
Gb|-------------------------|-------------------------|-------------------------|-------------------------|
Db|-------------------------|-------------------------|-------------------------|-------------------------|
Ab|--------------------3----|-5-----------------------|--------------------5----|-------------------------|
Eb|-5\0---------------------|--------------------3----|-5-----------------------|-3------------------3----|
Ab|-------------------------|-------------------------|-------------------------|-------------------------|

Gb|-------------------------|-------------------------|-------------------------|-------------------------|
Db|-------------------------|-------------------------|-------------------------|-------------------------|
Ab|--------------------3----|-5------------------5----|--------------------5----|-------------------------|
Eb|-5-----------------------|-------------------------|-5-----------------------|-3/15~~~~~~~~~~~~--------|
Ab|-------------------------|-------------------------|-------------------------|-------------------------|

Gb|-------------------------|-------------------------|-------------------------|-------------------------|
Db|-------------------------|-------------------------|-------------------------|------------/7--7--7--7--|
Ab|-------------------------|-------------------------|-5--5--5--5--5--5--------|-------------------------|
Eb|-5--5--5--5--5--5--5--5--|-7--7--7--7--7--7--7--7--|-------------------------|-5--5--5--5--------------|
Ab|-------------------------|-------------------------|-------------------3--5--|-------------------------|

Gb|-------------------------|-------------------------|-------------------------|-------------------------|
Db|-------------------------|-------------------------|-------------------------|-------------------------|
Ab|-------------------------|-------------------------|-5--5--5--5--5--5--------|-------------------------|
Eb|-5--5--5--5--5--5--5--5--|-7--7--7--7--7--7--7--7--|-------------------------|-5--5--5--5--5--5--5\----|
Ab|-------------------------|-------------------------|-------------------3--5--|-------------------------|


[Bridge]
Gb|-------------------------|-------------------------|-------------------------|-------------------------|
Db|-------------------------|-------------------------|-------------------------|-------------------------|
Ab|-------------------------|-------------------------|-------------------------|-------------------------|
Eb|-0--0--0--0--0--0--0--0--|-0--0--0--0--0--0--0--0--|-0--0--0--0--0--0--0--0--|-0--/12---/12---/12------|
Ab|-------------------------|-------------------------|-------------------------|-------------------------|

Gb|-------------------------|-------------------------|-------------------------|-------------------------|
Db|-------------------------|-------------------------|-------------------------|-------------------------|
Ab|-------------------------|-------------------------|-------------------------|-------------------------|
Eb|-0--0--0--0--0--0--0--0--|-0--0--0--0--0--0--0--0--|-0--0--0--0--0--0--0--0--|-0--0--0--0--0--0--0--0--|
Ab|-------------------------|-------------------------|-------------------------|-------------------------|

Gb|-------------------------|-------------------------|-------------------------|-------------------------|
Db|-------------------------|-------------------------|-------------------------|-------------------------|
Ab|-------------------------|-------------------------|-------------------------|-------------------------|
Eb|-0--0--0--0--0--0--0--0--|-0--0--0--0--0--0--0--0--|-0--0--0--0--0--0--0--0--|---rest------------------|
Ab|-------------------------|-------------------------|-------------------------|-------------------------|



[Final Chorus]

    play this line 7x and fade out with guitar solo
Gb|-------------------------|-------------------------|-------------------------|-------------------------|
Db|-------------------------|-------------------------|-------------------------|-------------------------|
Ab|-------------------------|-------------------------|-------------------------|----------5--5--5--5--5--|
Eb|-5--5--5--5--5--5--5--5--|-5--5--5--5--5--5--5--5--|-5--5--5--5--5--5--5--5--|-5--5--5-----------------|
Ab|-------------------------|-------------------------|-------------------------|-------------------------|


************************************

| h   Hammer-on
| p   Pull-off
| /   Slide up
| \   Slide down
| ~   Vibrato

************************************

            
            
Suggest correction
Creating personal tab
Creating personal tab
You can edit any tab online and save it as your Personal.

You can edit, replace or remove any tab part or add personal notes – all changes will be seen only by you.

Personal tabs can be accessed anytime from any device, even offline.
Learn more »
Give kudos to tab author, rate the tab!
1 2 3 4 5
comments
print report bad tab
1 comment total.
0 reply
harper34974 10 May 02, 2017 08:47 AM

Awesome! Thanks!

guest
You may want to rate the tab now too:
select rating
Wanna post a correction for this tab? Suggest correction