Oops, an error
Loading. Please wait.

Runnin With The Devil bass

version 2
version 2

Whole song

Interactive

8,255 views 30 this week
no commentswrite comment
1 2 3 4 5
x 6
add to favorites
×
Save as Personal and add changes to this tab that will be seen only by you. Learn more ›
×
You can save this tab as Personal to edit and correct it or add notes. All changes will be seen only by you. Learn more »
launch autoscroll
font size
0
reset
guitar tuner
edit
Autoscroll
slow
fast
+/-
esc
set tempo
stop
-------------------------------------------------------------------------------------------------
                                  RUNNIN’ WITH THE DEVIL – Van Halen
-------------------------------------------------------------------------------------------------

Tabbed By: van_halen_fan

Tuning: half-step down (from low to high: Eb, Ab, Db, Gb)
                                                               _________________________
Intro                                                         |1.          |2.
           q q q q   q q q q      q q q q   q q q q   q q q q   q q q q      q q q e e 
G|-------|---------|----------||----------|---------|---------|-----------||-----------|
D|--car--|---------|----------||*---------|---------|---------|----------*||-----------|
A|-horns-|---------|----------||*---------|---------|---------|----------*||-----------|
E|-------|-0-0-0-0-|-0-0-0-12\||--0-0-0-0-|-0-0-0-0-|-0-0-0-0-|-0-0-0-12\-||-0-0-0-2-3/|

Verse 1
   q q q q   q q q q   q q q q   q q h   q q q q   q q q q   q q q q   q q q q
G|---------|---------|---------|-------|---------|---------|---------|----------|
D|---------|---------|---------|-------|---------|---------|---------|----------|
A|---------|---------|---------|-------|---------|---------|---------|----------|
E|-5-5-5-5-|-5-5-5-5-|-5-5-5-5-|-5-5\0-|-5-5-5-5-|-5-5-5-5-|-5-5-5-5-|-5-5\0-12\|
                                  __________________________
Chorus                           |1.          |2.
     q q q q   q q q q   q q q q   q q q q       q q q e e
G||----------|---------|---------|-----------||-----------|
D||*---------|---------|---------|----------*||-----------|
A||*---------|---------|---------|----------*||-----------|
E||--0-0-0-0-|-0-0-0-0-|-0-0-0-0-|-0-0-0-12\-||-0-0-0-2-3/|

Verse 2
     q q q q   q q q q   q q q q   q q q q 
G||----------|---------|---------|-----------||
D||*---------|---------|---------|----------*||
A||*---------|---------|---------|----------*||
E||--5-5-5-5-|-5-5-5-5-|-5-5-5-5-|-5-5\0-12\-||
                                  __________________________
Chorus                           |1.          |2.
     q q q q   q q q q   q q q q   q q q q       q q q e e
G||----------|---------|---------|-----------||-----------|
D||*---------|---------|---------|----------*||-----------|
A||*---------|---------|---------|----------*||-----------|
E||--0-0-0-0-|-0-0-0-0-|-0-0-0-0-|-0-0-0-12\-||-0-0-0-2-3/|

Guitar Solo 1
   s s s s s s s s s s s s s e s   s s s s s s s s s s s s s s s s
G|-------------------------------|---------------------------------|
D|-------------------------------|-------------5-5-5-5-5-5-5-5-3---|
A|-------------------------------|-------------------------------5-|
E|-5-5-5-5-5-5-5-5-5-5-5-5-5-5-5-|-3-3-3-3-3-3---------------------|

   s s s s e s s g e s s s E   s s s s s s e s  s  s  s  s  s  e
G|---------------------------|------------------------------------|
D|---------7-----5h7-----7-7-|-------------5/14-14-14-14-14-14-14\|
A|---------------------------|------------------------------------|
E|-5-5-5-5---5-5-----5-5-----|-3-3-3-3-3-3------------------------|

   q q q q   q q q q    q q q q   q q q e e
G|---------|----------|---------|-----------|
D|---------|----------|---------|-----------|
A|---------|----------|---------|-----------|
E|-0-0-0-0-|-0-0-0/12\|-0-0-0-0-|-0-0-0-2-3/|

Verse 3
   q q q q   q q q q   q q q q   q q h   q q q q   q q q q   q q q q   q q q q
G|---------|---------|---------|-------|---------|---------|---------|----------|
D|---------|---------|---------|-------|---------|---------|---------|----------|
A|---------|---------|---------|-------|---------|---------|---------|----------|
E|-5-5-5-5-|-5-5-5-5-|-5-5-5-5-|-5-5\0-|-5-5-5-5-|-5-5-5-5-|-5-5-5-5-|-5-5\0-12\|
                                  __________________________
Chorus                           |1.          |2.
     q q q q   q q q q   q q q q   q q q q       q q q e e
G||----------|---------|---------|-----------||-----------|
D||*---------|---------|---------|----------*||-----------|
A||*---------|---------|---------|----------*||-----------|
E||--0-0-0-0-|-0-0-0-0-|-0-0-0-0-|-0-0-0-12\-||-0-0-0-2-3/|

Guitar Solo 2
   s s s s s s s s s s s s s e s   s s s s s s s s s s s s s s s s
G|-------------------------------|---------------------------------|
D|-------------------------------|-------------5-5-5-5-5-5-5-5-3---|
A|-------------------------------|-------------------------------5-|
E|-5-5-5-5-5-5-5-5-5-5-5-5-5-5-5-|-3-3-3-3-3-3---------------------|

   s s s s e s s g e s s q    s s s s s s e s s e  q
G|-----------------------14\|-------------------------|
D|---------7-----5h7--------|-------------------------|
A|--------------------------|-------------------------|
E|-5-5-5-5---5-5-----5-5----|-3-3-3-3-3-3-3-0-0/12/19\|

Outro
     q q q q   q q q q   q q q q   q q q q      q q q q   e q  q e q
G||----------|---------|---------|-----------||---------|--------r-r-||
D||*---------|---------|---------|----------*||---------|--------e-e-||
A||*---------|---------|---------|----------*||---------|--------s-s-||
E||--0-0-0-0-|-0-0-0-0-|-0-0-0-0-|-0-0-0-12\-||-0-0-0-0-|-0-12\0-t-t-||

Enjoy!!!


| /  slide up        g=grace note
| \  slide down      s=sixteenth note      S=dotted sixteenth note
| h  hammer-on       e=eighth note         E=dotted eighth note
| p  pull-off        q=quarter note        Q=dotted quarter note
| ~  vibrato         h=half note           H=dotted half note
| +  harmonic        w=whole note
| x  Mute note
=================================================================================================

            
            
Suggest correction
Creating personal tab
Creating personal tab
You can edit any tab online and save it as your Personal.

You can edit, replace or remove any tab part or add personal notes – all changes will be seen only by you.

Personal tabs can be accessed anytime from any device, even offline.
Learn more »
comments
print report bad tab
guest
You may want to rate the tab now too:
select rating
Wanna post a correction for this tab? Suggest correction