Oops, an error
Loading. Please wait.

Shes The Woman bass

version 1
version 1

Whole song

Interactive

1,951 views 1 this week
no commentswrite comment
1 2 3 4 5
3 more votes to show rating
add to favorites
×
Save as Personal and add changes to this tab that will be seen only by you. Learn more ›
×
You can save this tab as Personal to edit and correct it or add notes. All changes will be seen only by you. Learn more »
launch autoscroll
font size
0
reset
guitar tuner
backing track
0:00
0:00
edit
Autoscroll
slow
fast
+/-
esc
set tempo
stop
-------------------------------------------------------------------------------
                             SHE'S THE WOMAN - Van Halen
-------------------------------------------------------------------------------


Tabbed By : Isaias Garcia (TexasFury)

Tuning: Half-step down (Gb - Db - Ab - Eb)


       Intro                                               
       S  S  S  S  S  S  S  S  S  S  S  S  S  S  S  S  
F#||--14-11-12-13-14-11-12-13-14-11-12-13-14-11-12-13-|
C#||--------------------------------------------------|
G#||--------------------------------------------------|
D#||--------------------------------------------------|


   S  S  S  S  S  S  S  S  S  S  S  S  S  S  S  S  
--14-11-12-13-14-11-12-13-14-11-12-13-14-11-12-13-|
--------------------------------------------------|
--------------------------------------------------|
--------------------------------------------------|


   S  S  S  S  S  S  S  S  S  S  S  S  S  S  S  S  
--14-11-12-13-14-11-12-13-14-11-12-13-14-11-12-13-|
--------------------------------------------------|
--------------------------------------------------|
--------------------------------------------------|


   S  S  S  S  S  S  S  S  S  S  S  S  Q       S E  S E  S S S S E  S E  S  
--14-11-12-13-14-11-12-13-14-14-12-11-12----|------------------------------|
--------------------------------------12----|------------------------------|
--------------------------------------------|--0-0--0-0--0-0---0-0--0-0--0-|
--------------------------------------------|------------------------------|


  E  S S S S E  S E  S E  S S    S S E  S E  S E  S S S S E   
------------------------------|------------------------------|
------------------------------|------------------------------|
--0--0-0---0-0--0-0--0-0--0-0-|----0-0--0-0--0-0--0-0---0-0--|
------------------------------|------------------------------|


  S E  S E  S S S S E   Q       S E  S E  S S S S E  S E  S  
-----------------------------|------------------------------|
-----------------------------|------------------------------|
--0-0--0-0--0-0---0-0--10----|--0-0--0-0--0-0---0-0--0-0--0-|
-----------------------------|------------------------------|


  E  S S S S E  S E  S E  S S    S S E  S E  S E  S S S  S  S  S  
------------------------------|-------------------------11-12-13-|
------------------------------|----------------------------------|
--0--0-0---0-0--0-0--0-0--0-0-|----0-0--0-0--0-0--0-0------------|
------------------------------|----------------------------------|


                                                Verse 1                            
   S  S  S  S  S  S  S  S  S  S  S  S  Q        S  E  S E  S S S S E  S E  S  
--14-11-12-13-14-11-12-13-14-14-12-11-12----||-------------------------------|
--------------------------------------12----||-------------------------------|
--------------------------------------------||--0--0--0-0--0-0---0-0--0-0--0-|
--------------------------------------------||-------------------------------|


  E  S S S S E  S E  S E  S S    S S E  S E  S E  S S S S E   
------------------------------|------------------------------|
------------------------------|------------------------------|
--0--0-0---0-0--0-0--0-0--0-0-|----0-0--0-0--0-0--0-0---0-0--|
------------------------------|------------------------------|


  S E  S E  S S S S E   Q       S E  S E  S S S S E  S E  S  
-----------------------------|------------------------------|
-----------------------------|------------------------------|
--0-0--0-0--0-0---0-0--10----|--0-0--0-0--0-0---0-0--0-0--0-|
-----------------------------|------------------------------|


  E  S S S S E  S E  S E  S S    S S E  S E  S E  S S S S  S S  
------------------------------|--------------------------------|
------------------------------|--------------------------------|
--0--0-0---0-0--0-0--0-0--0-0-|----0-0--0-0--0-0--0-0---0-10-0-|
------------------------------|--------------------------------|


   S S S S  S S S S S S S S S S S S    Q    E  E   S S S S Q     
------------------------------------|--2------------------------|
------------------------------------|--0-------------------8----|
--12-0-7-0-10-0-5-0-7-0-3-0-5-0-3-4-|-------5--5\--5-5-5-5-6----|
------------------------------------|---------------------------|


                                     Chorus 1                            
  Q        Q     S S S S S S S S     S  E  S E  S S S S  E   Q     
---------------------------------||-------------------------------|
--9------------------------------||-------------------------------|
--7----12g17\------------------0-||--L--0--0-0--0-0---0-12---L----|
-----------------3-2-3-4-L-3-4---||-------------------------------|


  S E  S E  S S S S  E  Q       S E  S E  S S S S  E  S  S  S  S  
-----------------------------|--------------------14--L-11-12-13-|
-----------------------------|--------------------14--L----------|
--0-0--0-0--0-0---0-10--L----|--0-0--0-0--0-0---0----------------|
-----------------------------|-----------------------------------|


                                                Verse 2                            
   S  S  S  S  S  S  S  S  S  S  S  S  Q        S  E  S E  S S S S E  S E  S  
--14-11-12-13-14-11-12-13-14-14-12-11-12----||-------------------------------|
--------------------------------------12----||-------------------------------|
--------------------------------------------||--0--0--0-0--0-0---0-0--0-0--0-|
--------------------------------------------||-------------------------------|


  E  S S S S E  S E  S E  S S    S S E  S E  S E  S S S S E   
------------------------------|------------------------------|
------------------------------|------------------------------|
--0--0-0---0-0--0-0--0-0--0-0-|----0-0--0-0--0-0--0-0---0-0--|
------------------------------|------------------------------|


  S E  S E  S S S S E   Q       S E  S E  S S S S E  S E  S  
-----------------------------|------------------------------|
-----------------------------|------------------------------|
--0-0--0-0--0-0---0-0--10----|--0-0--0-0--0-0---0-0--0-0--0-|
-----------------------------|------------------------------|


  E  S S S S E  S E  S E  S S    S S E  S E  S E  S S S S  S S  
------------------------------|--------------------------------|
------------------------------|--------------------------------|
--0--0-0---0-0--0-0--0-0--0-0-|----0-0--0-0--0-0--0-0---0-10-0-|
------------------------------|--------------------------------|


   S S S S  S S S S S S S S S S S S    Q    E  E   E  S S Q     
------------------------------------|--2-----------------------|
------------------------------------|--0------------------8----|
--12-0-7-0-10-0-5-0-7-0-3-0-5-0-3-4-|-------5--5\--5--5-5-6----|
------------------------------------|--------------------------|


                                     Chorus 2                           
  Q        Q     S S S S S S S S     S  E  S E  S S S S  E  Q     
---------------------------------||------------------------------|
--9------------------------------||---------------------14--L----|
--7----12g17\------------------0-||--0--0--0-0--0-0---0----------|
-----------------3-2-3-4-L-3-4---||------------------------------|


  S E  S E  S S S S  E  Q       S E  S E  S S S S  E   E   E    
-----------------------------|---------------------------------|
--------------------12--L----|--------------------14---L---L\--|
--0-0--0-0--0-0---0-10--L----|--0-0--0-0--0-0---0-12---L---L\--|
-----------------------------|---------------------------------|


                                       Bridge                 
           NH                                           
  E  E     Q      S S S S S  S S S     W                 
----------14-----------------------||-------------------|
----------------5g7-5--------------||-------------------|
--0--0--<>12----------7-6-5S-3-----||-------------------|
-------------------------------5-3-||-------------------|


  H        E.  S S S S S    W                   H        E   S  S  S  S S S  
-------------------------|-------------------|------------------------------|
---------------5-7-5-----|-------------------|------------------------------|
-------------------------|-------------------|--------------10-10-12-10-0-0-|
---------------------5-5-|-------------------|------------------------------|


  E    E  S  E.   E.   S S  S  S  S    S S E  S S E    E.  S S S S S  
------------------------------------|--------------------------------|
------------------------------------|--------------------------------|
--5/--12----10--------12------10-10-|----3-5--L-3----3g5---3-5-3-0-0-|
-----------------12--------10-------|--------------------------------|


  S S    E  S  E.   E.   S S  S  S  S   
---------------------------------------|
---------------------------------------|
--L---7g12----10--------12------10-10s-|
----5--------------12--------10--------|


   S S S S S  S   S S  S S S S  S S  S  S  
------------------------------------------|
--------------------9-12------------------|
--12-8-8-8-L-10s-12------0-9-0-10-0-11-12-|
------------------------------------------|


   E    E  S  E.   E.   S S  S  S  S     S  S E  S E     S  E.   S  S  S  S  S  
-------------------------------------|-----------------------------------------|
-------------------------------------|----------------5g10-12---10-12-10-------|
---L\--12----10--------12------10-10-|---L\-3-5--L-3---------------------12-12-|
------------------12--------10-------|-----------------------------------------|


   E    E  S  E.   E.   S S  S  S  S      S S S S S S S S E  E   Q      
--------------------------------------|--------------------------------||
--------------------------------------|--------------------------------||
---L\--12----10--------12------10-10s-|--12-8-8-8-L-8------------------||
------------------12--------10--------|---------------0-0-3--3--11\----||


  Guitar Solo                                                                  
  E  S S S S S S S S S S S S S S    S S S S S S S S S S S S S S S S  
---------------------------------|----------------------------------|
---------------------------------|----------------------------------|
--3--3-3-3-3-3-3-5-5-5-5-5-5-0-0-|--1-1-1-1-1-1-0-3-3-3-3-----------|
---------------------------------|------------------------3-3-3-0-0-|


  S S S S S S S S S S S S S S S S    S  S  S  S  S  S  E   E   S  S  S  S  E    
----------------------------------|---------------------------12-12-12-12-12\--|
----------------------------------|--------------------------------------------|
--6-6-6-6-6-6-6-6-8-8-8-8---------|-------------------10---L-------------------|
--------------------------8-8-8-8-|--L-10-10-10-10-10--------------------------|


  E  S S S S S S S S S S S S E      S S S S S S S S S S S S S S S S  
---------------------------------|----------------------------------|
---------------------------------|----6-6---6-6---------------------|
--6--6-6-6-6-6-6-8-8-8-8-8-8-8\--|--4-----4-------6-L-6-6-6---------|
---------------------------------|--------------4-----------6-6-0-0-|


  E  S S S S S  S  E   S  S  S  S  S  S    S S S S E  S S Q     Q     
----------------------------------------|----------------------------||
----------------------------------12-12-|----------------------------||
--8--8-8-8-8-8-10-10--10-10-------------|----5-7-7-7----7-L\---------||
----------------------------10-10-------|--0----------0--------------||


  Verse 3                                                           
  S  E  S E  S S S S E  S E  S    E  S S S S E  S E  S E  S S  
-------------------------------|------------------------------|
-------------------------------|------------------------------|
--0--0--0-0--0-0---0-0--0-0--0-|--0--0-0---0-0--0-0--0-0--0-0-|
-------------------------------|------------------------------|


  S S E  S E  S E  S S S S E     S E  S S S E     S  S  S   S  S  S  S   S  
------------------------------|--------------------------------------------|
------------------------------|-------------------------------12-----------|
----0-0--0-0--0-0--0-0---0-0--|--0-0--0-0-0-0--7g12-12-10h-12----12-10h-12-|
------------------------------|--------------------------------------------|


  S E  S E  S S S S  E  Q       S E  S E  S S     S  S  S  S  S   S  S  S  
-----------------------------|----------------12g14-12--------------------|
--------------------14-------|-------------------------14-13-12S-10-------|
--0-0--0-0--0-0---0-----0----|--0-0--0-0--0-0-----------------------12-10-|
-----------------------------|--------------------------------------------|


  S E  S E  S S S S E  S S  S S     S S S S  S S S S S S S S S S S S  
--------------------------------|------------------------------------|
--------------------------------|------------------------------------|
--0-0--0-0--0-0---0-0--0-0-10-0-|--12-0-7-0-10-0-5-0-7-0-3-0-5-0-3-4-|
--------------------------------|------------------------------------|


  Q    E  E   S S S S Q       Q        Q     S S S S S S S S  
--2------------------------|---------------------------------||
--0-------------------8----|--9------------------------------||
-------5--5\--5-5-5-5-6----|--7----12g17\------------------0-||
---------------------------|-----------------3-2-3-4-L-3-4---||


  Chorus 3                                                               
  S  S E  S E.   S S S S S S S S    S S E  S E.   S S S S S S S S  
---------------------------------|--------------------------------|
-------7--5-7\-------------------|------7--5-7\-------------------|
--L--0-------------------------0-|--L-0-------------------------0-|
-----------------3-2-3-4-L-3-4---|----------------3-2-3-4-L-3-4---|


  S S    E   S  E.   S S S S S S S S    E  E   Q    H          
------9g14--12-14\-------------------|-----------------------||
-------------------------------------|-----------------------||
--L-0--------------------------------|-----------------------||
---------------------3-2-3-4-L-3-4-5-|--L--L\----------------||


Duration Legend
---------------
W - whole
H - half
Q - quarter
E - 8th
S - 16th
. - note dotted

Tablature Legend
----------------
L - tied note
g - grace note
NH - natural harmonic
h - hammer on
p - pull off
S - shift slide
s - legato slide
/ -  slide into from below or out of upwards
\ -  slide into from above or out of downwards



            
            
Suggest correction
Creating personal tab
Creating personal tab
You can edit any tab online and save it as your Personal.

You can edit, replace or remove any tab part or add personal notes – all changes will be seen only by you.

Personal tabs can be accessed anytime from any device, even offline.
Learn more »
Give kudos to tab author, rate the tab!
1 2 3 4 5
comments
print report bad tab
guest
You may want to rate the tab now too:
select rating
Wanna post a correction for this tab? Suggest correction