Oops, an error
Loading. Please wait.

Shes The Woman tab

version 1
version 1

Whole song

Interactive

9,571 views 6 this week
no commentswrite comment
1 2 3 4 5
x 4
add to favorites
×
Save as Personal and add changes to this tab that will be seen only by you. Learn more ›
×
You can save this tab as Personal to edit and correct it or add notes. All changes will be seen only by you. Learn more »
launch autoscroll
font size
0
reset
how to read this tab
guitar tuner
backing track
0:00
0:00
edit
Autoscroll
slow
fast
+/-
esc
set tempo
stop
-------------------------------------------------------------------------------
                             SHE'S THE WOMAN - Van Halen
-------------------------------------------------------------------------------


Tabbed by: Isaias Garcia (TexasFury)

Tuning: Half-step down (Eb - Bb - Gb - Db - Ab - Eb)


Rhythm Guitar

      Intro
      H        Q    E  E     Q     H         S    S  S  S
D#||----------------------|-------------------------------|
A#||----------------------|-------------------------------|
F#||-------------------0--|--7b----L~--------7pbr-Lb-5h-7-|
C#||-------------------0--|-------------------------------|
G#||----------------------|-------------------------------|
D#||----------------------|-------------------------------|


                                          |--3--|
  S E.   Q.      E   S  S  E      Q.      S  S  S H
-----------------------(0)-8b--|--Lb------Lp-5h-8-5--------|
-------------------------------|---------------------------|
----5b---Lb------L\------------|---------------------------|
-------------------------------|---------------------------|
-------------------------------|---------------------------|
-------------------------------|---------------------------|


                                        PM PM   PM PM   PM PM
   E   S  S S S  S  S S  S S  S Q       S  S  S S  S  S S  S  E  E  Q
-------8p-5---------------------3----|------------------------------------|
------------5-------------------3----|------------------------------------|
--12\---------7p-5h-7-----------0----|---------------------------5--L~----|
--12\---------------------------0----|--------7-------5-------7--5--L~----|
----------------------5b-5-3p-0------|--0--0----0--0----0--0--------------|
--------------------------------3----|------------------------------------|


  PM PM   PM PM   PM PM                PM PM   PM PM   PM PM
  S  S  S S  S  S S  S  E  E  Q        S  S  S S  S  S S  S  E  E  Q
------------------------------------|------------------------------------|
------------------------------------|------------------------------------|
---------------------------7--L~----|---------------------------5--L~----|
--------7-------5-------7--7--L~----|--------7-------5-------7--5--L~----|
--0--0----0--0----0--0--------------|--0--0----0--0----0--0--------------|
------------------------------------|------------------------------------|


                                      PM PM   PM PM   PM PM
   E   E   S  S  E   E  S  S Q        S  S  S S  S  S S  S  E  E  Q
-----------------------------------|------------------------------------|
-------7b--7b-Lb-5~--5-------------|------------------------------------|
--(x)------------5~--5-------------|---------------------------5--L~----|
--(x)-------------------5p-0-------|--------7-------5-------7--5--L~----|
-----------------------------3~----|--0--0----0--0----0--0--------------|
-----------------------------------|------------------------------------|


  PM PM   PM PM   PM PM                PM PM   PM PM   PM PM
  S  S  S S  S  S S  S  E  E  Q        S  S  S S  S  S S  S  E  E  S  S S S
------------------------------------|---------------------------------------|
------------------------------------|---------------------------------------|
---------------------------7--L~----|---------------------------5--L~-------|
--------7-------5-------7--7--L~----|--------7-------5-------7--5--L~-4-5-6-|
--0--0----0--0----0--0--------------|--0--0----0--0----0--0-----------------|
------------------------------------|---------------------------------------|


                                       Verse 1
                                       PM PM   PM PM   PM PM
  S S S S S S S S E    S   S  Q        S  S  S S  S  S S  S  E  E  Q
------------------------------3----||------------------------------------|
----------------------(0)-(3)-3----||------------------------------------|
----------------------(0)-----0----||---------------------------5--L~----|
--7-4-5-6-7-4-5-6-7\----------0----||--------7-------5-------7--5--L~----|
-----------------------------------||--0--0----0--0----0--0--------------|
------------------------------3----||------------------------------------|


  PM PM   PM PM   PM PM                PM PM   PM PM   PM PM
  S  S  S S  S  S S  S  E  E  Q        S  S  S S  S  S S  S  E  E  Q
------------------------------------|------------------------------------|
------------------------------------|------------------------------------|
---------------------------7--L~----|---------------------------5--L~----|
--------7-------5-------7--7--L~----|--------7-------5-------7--5--L~----|
--0--0----0--0----0--0--------------|--0--0----0--0----0--0--------------|
------------------------------------|------------------------------------|


             PM   PM PM
  S S S T  T S  S S  S  S  T  T S S S E.
-------------------------------------------|
-------------------------------------------|
----5-5-7p-5----5-------5h-7p-5-4-5-7------|
-------------7----7-----------------7------|
---------------------7----------------7~---|
-------------------------------------------|


  PM PM   PM PM   PM PM                PM PM   PM PM   PM PM
  S  S  S S  S  S S  S  E  E  Q        S  S  S S  S  S S  S  E  E  Q
------------------------------------|------------------------------------|
------------------------------------|------------------------------------|
---------------------------5--L~----|---------------------------7--L~----|
--------7-------5-------7--5--L~----|--------7-------5-------7--7--L~----|
--0--0----0--0----0--0--------------|--0--0----0--0----0--0--------------|
------------------------------------|------------------------------------|


  PM PM   PM PM   PM PM
  S  S  S S  S  S S  S  E  E  E    S  S
----------------------------------------|
----------------------------------------|
---------------------------5--L~--------|
--------7-------5-------7--5--L~--------|
--0--0----0--0----0--0------------10p-0-|
----------------------------------------|


                                                        PM PM PM PM
   S  S S  S  S  S S  S S  S S  S S  S S  S    H        S  S  S  S  Q
--------------------------------------------|----------------------------|
--------------------------------------------|--3-------------------------|
--------------------------------------------|--2--------------------8----|
--------------------------------------------|--0--------0--0--0--0--8----|
--12p-0-7p-0-10p-0-5p-0-7p-0-3p-0-5p-0-3h-4-|--0--------------------6----|
--------------------------------------------|----------------------------|


                                    Chorus 1
                                         PM PM   PM PM
  Q       Q     S S S S S S S S     E  S S  S  S S  S  E  E  Q
--0-----------------------------||---------------------------------|
--0-----------------------------||---------------------------------|
--9-----------------------------||------------------------5--L~----|
--9-----------------------------||-----7-------5-------7--5--L~----|
--7---------------------------0-||--L----0--0----0--0--------------|
-------7g12\----3-2-3-4-L-3-4---||---------------------------------|


  PM PM   PM PM   PM PM                PM PM   PM PM   PM PM
  S  S  S S  S  S S  S  E  E  Q        S  S  S S  S  S S  S  E  E  Q
------------------------------------|------------------------------------|
------------------------------------|------------------------------------|
---------------------------7--L~----|---------------------------5--L~----|
--------7-------5-------7--7--L~----|--------7-------5-------7--5--L~----|
--0--0----0--0----0--0--------------|--0--0----0--0----0--0--------------|
------------------------------------|------------------------------------|


                                       Verse 2
                                       PM PM   PM PM   PM PM
  S S S S S S  S  S  E   S  S Q        S  S  S S  S  S S  S  E  E  Q
------------------------------3----||------------------------------------|
----------5-------------------3----||------------------------------------|
------------7p-5p-0-----------0----||---------------------------5--L~----|
--7-4-5-6---------------------0----||--------7-------5-------7--5--L~----|
--------------------12\--3p-0------||--0--0----0--0----0--0--------------|
------------------------------3----||------------------------------------|


  PM PM   PM PM   PM PM
  S  S  S S  S  S S  S  E  E  Q
------------------------------------|
------------------------------------|
---------------------------7--L~----|
--------7-------5-------7--7--L~----|
--0--0----0--0----0--0--------------|
------------------------------------|


  PM PM   PM PM   PM PM
                                    |--3--|
  S  S  S S  S  S S  S  E  E  S  S  S  S  S
--------------------------------------------|
--------------------------------------------|
---------------------------5--L~-7b-Lb-Lp-5-|
--------7-------5-------7--5--L~------------|
--0--0----0--0----0--0----------------------|
--------------------------------------------|


                       \1/                        PM   PM PM
  S S  S  S S S  S  S  E.   S   Q         E    E  S  S S  S  E  E  Q
---------------------------------------|---------------------------------|
-------------------------------15b~----|--Lb~----------------------------|
--7-7b-Lb-5-7-7b-Lb-5p-0---(0)---------|------------------------5--L~----|
---------------------------(0)---------|-------7-----5-------7--5--L~----|
---------------------------------------|----------0----0--0--------------|
---------------------------------------|---------------------------------|


  PM PM   PM PM   PM PM                PM PM   PM PM   PM PM
  S  S  S S  S  S S  S  E  E  Q        S  S  S S  S  S S  S  E  E  E    S  S
------------------------------------|----------------------------------------|
------------------------------------|----------------------------------------|
---------------------------7--L~----|---------------------------5--L~--------|
--------7-------5-------7--7--L~----|--------7-------5-------7--5--L~--------|
--0--0----0--0----0--0--------------|--0--0----0--0----0--0------------10p-0-|
------------------------------------|----------------------------------------|


                                                        PM PM PM PM
   S  S S  S  S  S S  S S  S S  S S  S S  S    H        S  S  S  S  Q
--------------------------------------------|----------------------------|
--------------------------------------------|--3-------------------------|
--------------------------------------------|--2--------------------8----|
--------------------------------------------|--0--------0--0--0--0--8----|
--12p-0-7p-0-10p-0-5p-0-7p-0-3p-0-5p-0-3h-4-|--0--------------------6----|
--------------------------------------------|----------------------------|


                                    Chorus 2
                                         PM PM   PM PM
  Q       Q     S S S S S S S S     E  S S  S  S S  S  E  E  Q
--0-----------------------------||---------------------------------|
--0-----------------------------||---------------------------------|
--9-----------------------------||------------------------5--L~----|
--9-----------------------------||-----7-------5-------7--5--L~----|
--7---------------------------0-||--L----0--0----0--0--------------|
-------7g12\----3-2-3-4-L-3-4---||---------------------------------|


  PM PM   PM PM   PM PM                PM PM   PM PM   PM PM
  S  S  S S  S  S S  S  E  E  Q        S  S  S S  S  S S  S  E  E  Q
------------------------------------|------------------------------------|
------------------------------------|------------------------------------|
---------------------------7--L~----|---------------------------5--L~----|
--------7-------5-------7--7--L~----|--------7-------5-------7--5--L~----|
--0--0----0--0----0--0--------------|--0--0----0--0----0--0--------------|
------------------------------------|------------------------------------|


           pick scrape               Bridge
  E   E    Q      S S S S S E.       E    E   S  E  S  E   S  S S  S  E
---------------------------------||--------------------------------------|
---------------------------------||--------------------------------------|
--L------------------------------||------14-----12--L\-9-----14---12-12--|
--L--------x\-----7-5------------||------14---x-12--L\-9---x-14---12-12--|
-----12\---x\---------7-6-5-3~---||--L/--12---x-10--L\-7---x-12---10-10--|
---------------------------------||--------------------------------------|


  S S E  S E  S E.  S S S S S    S S   E   S  E  S  E   S  S S  S  E
------------------------------|---------------------------------------|
------------------------------|---------------------------------------|
--x-x-7--L-5----7-------------|-------14-----12--L\-9-----14----x-12--|
--x-x-7--L-5--x-7-------------|-------14---x-12--L\-9---x-14----x-12--|
--x-x-5--L-3--x-5---3-5-3-0-0-|--L-5/-12---x-10--L\-7---x-12----x-10--|
------------------------------|---------------------------------------|


                              PH
   S  S  S  S  S S   S   S    S S S  S  S  S  S  S
---------------------------------------------------|
---------------------------------------------------|
-----10-10-10-10------------<>7--------------------|
---x-10-10-10-10-----------------------------------|
---x--8--8--8--8-8s-10S-(5)-----0-9b-0-10p-0-11-12-|
---------------------------------------------------|


  E    E   S  E   S  E   S  S S  S  E      E   E  S E  S E.  S S S S S
---------------------------------------|-------------------------------|
---------------------------------------|-------------------------------|
------14---x-12---L\-9-----14---12-12--|-------7--L-5----7-------------|
------14---x-12---L\-9---x-14---12-12--|-------7--L-5--x-7-------------|
--L~--12---x-10---L\-7---x-12---10-10--|--10\--5--L-3--x-5---3-5-3-0-0-|
---------------------------------------|-------------------------------|


  S S   E   S  E  S  E   S  S S  S  E
---------------------------------------|
---------------------------------------|
-------14-----12--L\-9-----14---12-12--|
-------14---x-12--L\-9---x-14---12-12--|
--L-5/-12---x-10--L\-7---x-12---10-10--|
---------------------------------------|


                              PH
   S  S  S  S  S S   S   S    S S S  S  S  S  S  S
---------------------------------------------------|
---------------------------------------------------|
-----10-10-10-10------------<>7--------------------|
---x-10-10-10-10-----------------------------------|
---x--8--8--8--8-8s-10S-(5)-----0-9b-0-10p-0-11-12-|
---------------------------------------------------|


  E    E   S  E   S  E   S  S S  S  E      E   E  S E  S E.  S S S S S
---------------------------------------|-------------------------------|
---------------------------------------|-------------------------------|
------14---x-12---L\-9-----14---12-12--|-------7--L-5----7-------------|
------14---x-12---L\-9---x-14---12-12--|-------7--L-5--x-7-------------|
--L~--12---x-10---L\-7---x-12---10-10--|--10\--5--L-3--x-5---3-5-3-0-0-|
---------------------------------------|-------------------------------|


  S S   E   S  E  S  E   S  S S  S  E      S  S  S  S  S  E.   E   E   Q
---------------------------------------|------------------------------------||
---------------------------------------|------------------------------------||
-------14-----12--L\-9-----14----x-12--|-----10-10-10--L-10---12--12--12----||
-------14---x-12--L\-9---x-14----x-12--|---x-10-10-10--L-10---12--12--12----||
--L-5/-12---x-10--L\-7---x-12----x-10--|---x--8--8--8--L--8---10--10--10----||
---------------------------------------|------------------------------------||


  Guitar Solo
       PM PM PM      PM                   PM PM PM               PM PM
  Q    S  S  S  S  S S  E  E  E     E  E  S  S  S  S S S S S S S S  S
---------------------------------|-------------------------------------|
---------------------------------|-------------------------------------|
--5------------------------------|-------------------------------------|
--5-------------5s-7----7--7--7--|--3--3-----------5-L-5-5-------------|
--3----3--3--3--3s-5-5--5--5--5--|--1--1--1--1--1--3-L-3-3-5-L-5-------|
---------------------------------|-------------------------3-L-3-0--0--|


        PM PM PM
  E  E  S  S  E   S  S  E   S  S  E     S  S  S  S  S  S  E   E   E   E   E
-------------------------------------|----------------------------------------|
-------------------------------------|----------------------------------------|
-------------------------------------|----------------------------------------|
--8--8-----------10-10-10------------|-------------------12--12--12--12--12\--|
--6--6--6--6--6---8--8--8--10-10-10--|--L-12-12-12-12-12-10--10--10--10--10\--|
----------------------------8--8--8--|--L-10-10-10-10-10----------------------|


     PM PM PM PM PM         PM
  E  S  S  S  S  S     S  S S   E   E   E     Q    E.  S E.  S  E   E
-------------------------------------------|----------------------------|
-------------------------------------------|--6----L--------------------|
--8----------------------------10--10--10--|--6----L---8-L--------------|
--8-----------------8g10--L----10--10--10--|--6----L---8-L---8--L---L\--|
--6--6--6--6--6--6---6g8--L-8---8---8---8--|--4----L---6-L---8--L---L\--|
-------------------------------------------|-----------------6--L---L\--|


   E   E   Q     S  S  S  S Q       S S S S S S S S Q    E     E
---------------------------------|---------------------------------||
----------------12-12-12-12------|---------------------------------||
--10--10--10----12-12-12-12-7----|--9-9-9-9-9-9-9-9----------------||
--10--10--10----12-12-12-12-7----|--9-9-9-9-9-9-9-9----------------||
---8---8---8----10-10-10-10-5----|--7-7-7-7-7-7-7-7----------------||
---------------------------------|--------------------------7g12\--||


  Verse 3
  PM PM   PM PM   PM PM                PM PM   PM PM   PM PM
  S  S  S S  S  S S  S  E  E  Q        S  S  S S  S  S S  S  E  E  Q
------------------------------------|------------------------------------|
------------------------------------|------------------------------------|
---------------------------5--L~----|---------------------------7--L~----|
--------7-------5-------7--5--L~----|--------7-------5-------7--7--L~----|
--0--0----0--0----0--0--------------|--0--0----0--0----0--0--------------|
------------------------------------|------------------------------------|


  PM PM   PM PM   PM PM
  S  S  S S  S  S S  S  E  E  S  E.
--------------------------------------|
--------------------------------------|
---------------------------5--L~-7b---|
--------7-------5-------7--5--L~------|
--0--0----0--0----0--0----------------|
--------------------------------------|


   T       T                    T     T     T     T
   S   S   E     S   S  T  T S  T  T  T  T  T  T  T  T Q
-------------------------------------------------------------|
-------------------------------------------------------------|
--10pb-7b-12pb~--7pb-Lp-5p-0---------------------------------|
-----------------------------7-------------------------------|
-------------------------------12p-7-12p-6-12p-5-12p-3-5~----|
-------------------------------------------------------------|


  PM PM   PM PM   PM PM                PM PM   PM PM   PM PM
  S  S  S S  S  S S  S  E  E  Q        S  S  S S  S  S S  S  E  E  Q
------------------------------------|------------------------------------|
------------------------------------|------------------------------------|
---------------------------5--L~----|---------------------------7--L~----|
--------7-------5-------7--5--L~----|--------7-------5-------7--7--L~----|
--0--0----0--0----0--0--------------|--0--0----0--0----0--0--------------|
------------------------------------|------------------------------------|


  PM PM   PM PM   PM PM
  S  S  S S  S  S S  S  E  E  E    S  S
----------------------------------------|
----------------------------------------|
---------------------------5--L~--------|
--------7-------5-------7--5--L~--------|
--0--0----0--0----0--0------------10p-0-|
----------------------------------------|


                                                        PM PM PM PM
   S  S S  S  S  S S  S S  S S  S S  S S  S    H        S  S  S  S  Q
--------------------------------------------|----------------------------|
--------------------------------------------|--3-------------------------|
--------------------------------------------|--2--------------------8----|
--------------------------------------------|--0--------0--0--0--0--8----|
--12p-0-7p-0-10p-0-5p-0-7p-0-3p-0-5p-0-3h-4-|--0--------------------6----|
--------------------------------------------|----------------------------|


                                    Chorus 3
                                            PH  PH
  Q       Q     S S S S S S S S     E  E    S   E.   S S S S S S S S
--0-----------------------------||-----------------------------------|
--0-----------------------------||-----------------------------------|
--9-----------------------------||-----------------------------------|
--9-----------------------------||-----7--<>5-<>7~-------------------|
--7---------------------------0-||--L------------------------------0-|
-------7g12\----3-2-3-4-L-3-4---||-------------------3-2-3-4-L-3-4---|


          PH  PH                              PH  PH
  E  E    S   E.   S S S S S S S S    E  E    S   E.   S S S S S S S S
-----------------------------------|-----------------------------------|
-----------------------------------|-----------------------------------|
-----------------------------------|---------------------------------2-|
-----7--<>5-<>7~-------------------|-----7--<>5-<>7~-----------------2-|
--L------------------------------0-|--L------------------------------0-|
-------------------3-2-3-4-L-3-4---|-------------------3-2-3-4-L-3-4---|


  E  E  Q    H
----------------------||
----------------------||
--L-------------------||
--L-------------------||
--L-------------------||
----------------------||



Lead Guitar

      m.46 - Bridge
      S S S S     E    E  S S S S     E    E
D#||------------------------------------------|
A#||------------------------------------------|
F#||----------12g14s--12----------------------|
C#||------------------------------12g14s--12--|
G#||--x-x-x-x-------------x-x-x-x-------------|
D#||--x-x-x-x-------------x-x-x-x-------------|


  S S S S S S S S S S S S S S S S    S S S S     E    E  S S S S  E    E
----------------------------------|---------------------------------------|
----------------------------------|---------------------------------------|
----------------------------------|----------12g14s--12----------17h--19--|
----------------------------------|---------------------------------------|
--x-x-x-x-x-x-x-x-x-x-x-x-x-x-x-x-|--x-x-x-x-------------x-x-x-x----------|
--x-x-x-x-x-x-x-x-x-x-x-x-x-x-x-x-|--x-x-x-x-------------x-x-x-x----------|


                                                        > >
  S S S S S S S S S S S S S S S S    E  S S     E    E  S S S S     E    E
----------------------------------|-----------------------------------------|
----------------------------------|-----------------------------------------|
----------------------------------|---------12g14s--12--x-x-x-x-------------|
----------------------------------|---------------------x-x-x-x-12g14s--12--|
--x-x-x-x-x-x-x-x-x-x-x-x-x-x-x-x-|--x--x-x---------------------------------|
--x-x-x-x-x-x-x-x-x-x-x-x-x-x-x-x-|--x--x-x---------------------------------|


  S S S S S S S S S S S S S S S S    S S S S     E    E  S S S S  E    E
----------------------------------|---------------------------------------|
----------------------------------|---------------------------------------|
----------------------------------|----------12g14s--12----------17h--19--|
----------------------------------|---------------------------------------|
--x-x-x-x-x-x-x-x-x-x-x-x-x-x-x-x-|--x-x-x-x-------------x-x-x-x----------|
--x-x-x-x-x-x-x-x-x-x-x-x-x-x-x-x-|--x-x-x-x-------------x-x-x-x----------|


                             Guitar Solo
   TP
   H         Q     Q         S S   S   S S   S   S     S E   S  S  S  S  E
-------------------------||-------------------------------------------------|
-------------------------||-------------------------------------------------|
--19--------19----12\----||--------------9h-10h-12-12g14-L--12-11----11-----|
------------------12\----||----9h-10h-12--------------------------14----12--|
-------------------------||-------------------------------------------------|
-------------------------||-------------------------------------------------|


  S  S   S   S  S   S   S     S S  S  S  S Q
--------------------------------------------------|
--------------------------------------------------|
--------------------------------------------------|
--L------------12h-13h-15-15g17-L-14--------------|
----12h-13h-15-----------------------15-14-L\~----|
--------------------------------------------------|


    S S  S  S  E   E   S   S   S  S  S  S  E
----------------------------------------------|
----------------------------------------------|
------8-12p-8-12\-----14p-10h-14----12p-9-----|
--5g8--------------8-------------10-------10--|
----------------------------------------------|
----------------------------------------------|


  S  S  S  S  S  S  E  S   S  S  S  Q
-------------------------------------------|
--------------------------------18b-L\~----|
-------------14-17-16--Ls-17---------------|
-------14-17-----------------17------------|
----17-------------------------------------|
-------------------------------------------|


                                 |---3---|
  S  S   S   S  S   S   S  S E   S   S   S  S  S   E
-------------------------------------------------------|
--------------------------13-L--10h-13p-10-------------|
---------------12h-13h-15------------------12b-Lh-10~--|
----12h-13h-15-----------------------------------------|
-------------------------------------------------------|
-------------------------------------------------------|


  S  S   S   S  S   S   S   S S  S  S  S  E    E
---------------------------------------------------|
---------------------------------------------------|
--L------------10h-11h-13S-15-L-12-----------------|
----10h-11h-13---------------------13-12~-L\~------|
---------------------------------------------------|
-----------------------------------------------5/--|


   |---3---|  |---3---|  |---3---|  |---3---|  |---3---|  |---3---|   |---3---|
   S   S   S  S   S   S  S   S   S  S   S   S  S   S   S  S   S   S   S   S   S
---------------------------------------------------------11h-13h-15S-17h-19h-20-|
--------------------------------------------------------------------------------|
------------------------11h-12h-14------------11h-12h-14------------------------|
-------------11h-12h-14------------11h-12h-14-----------------------------------|
--11h-12h-14--------------------------------------------------------------------|
--------------------------------------------------------------------------------|


           |---3---|
   S   S   S   S   S  S   S   S  S   Q     E.    S      W
--17h-19h-20p-19p-17--------------------------------|----------------------|
---------------------20b--Lp-17-20b--L-----Lb----Lb-|---Lb~----------------|
----------------------------------------------------|----------------------|
----------------------------------------------------|----------------------|
----------------------------------------------------|----------------------|
----------------------------------------------------|----------------------|


  W                   W
-------------------|-------------------||
--L----------------|--L----------------||
-------------------|-------------------||
-------------------|-------------------||
-------------------|-------------------||
-------------------|-------------------||



Duration Legend
---------------

H - half
Q - quarter
E - 8th
S - 16th
T - 32nd
X - 64th
. - note dotted
|-n-|  - n-tuplets

Tablature Legend
----------------
L - tied note
x - dead note
g - grace note
(n) - ghost note
> - accentuded note
NH - natural harmonic
AH - artificial harmonic
PH - pitch harmonic
h - hammer on
p - pull off
b - bend
br - bendRelease
pb - preBend
pbr - preBendRelease
brb - bendReleaseBend
\n/ - tremolo bar dip
\n - tremolo bar dive
-/n - tremolo bar Release up
/n\ - tremolo bar inverted dip
/n - tremolo bar return
-\n - tremolo bar Release down
S - shift slide
s - legato slide
/ -  slide into from below or out of upwards
\ -  slide into from above or out of downwards
~ - vibrato
TP - tremolo picking
T - tapping



Get my other tabs for Guitar Pro, Powertab, guitar/bass text and chords at
http://profile.ultimate-guitar.com/TexasFury/contributions/

            
            
Suggest correction
Creating personal tab
Creating personal tab
You can edit any tab online and save it as your Personal.

You can edit, replace or remove any tab part or add personal notes – all changes will be seen only by you.

Personal tabs can be accessed anytime from any device, even offline.
Learn more »
comments
print report bad tab
guest
You may want to rate the tab now too:
select rating
Wanna post a correction for this tab? Suggest correction