Oops, an error
Loading. Please wait.

So This Is Love Tab

version 2
version 2

Whole song

Interactive

1,584 views 6 this week
no commentswrite comment
1 2 3 4 5
please rate
add to favorites
launch autoscroll
font size
0
reset
how to read this tab
guitar tuner
Autoscroll
slow
fast
+/-
esc
set tempo
stop
Help us to improve Ultimate-Guitar.com Take our survey!
×
Difficulty
Tuning
intermediate
D# G# C# F# A# D#
-------------------------------------------------------------------------------
                                  SO THIS IS LOVE - Van Halen
-------------------------------------------------------------------------------

Tabbed by: wallyboy
Email: wallyboy317@hotmail.com

Tuning: Eb Ab Db Gb Bb eb


Looked around for a decent tab of this and couldn't find one, so here's what I came up with.

Eddie changes things a little each time through so you'll have to listen to the 
recording for the variations.


   [light distortion............................] [heavy distortion from here on]
eb-------------------------------------------------------------------------------|
Bb--7-8--5v----6--5---------------7-8--5v---6--5---------------------------------|
Gb--7-7--5v----5--5---4-2-2-2-----7-7--5v---5--5---------------------------------|
Db--7-7--5v---5-------5-5-5-4\----7-7--5v----------9--7--7--7--------------------|
Ab-------------------------------------------------10-10-10-9\-------------------|
Eb-------------------------------------------------------------------------------|


                                                  [few pick slides in here......]
eb-------------------------------------------------------------------------------|
Bb-----5-6-x-3-x-5----------------------------3--2-------------------------------|
Gb-----5-5-x-4-x-5-------7--7-4-----------0---2--2-------------------------------|
Db-----5-5-x-5-x-5---5-5-7--7-4------3----0---2--2-------------------------------|
Ab--\3-------3---3---5-3-5--5-2--ps--3----x---0----------------------------------|
Eb-------------------3-3---------ps--1--2-3--------------------------------------|



eb-------------------------------------------------------------------------------|
Bb--7-x-7-8--7\5------------6--6-5---3-3-3-2-------------------------------------|
Gb--7-x-7-7--7\5------------5--5-5---2-2-2-2-------------------------------------|
Db--7-x-7-7--7\5------------5--5-5---2-2-2-2-------------------------------------|
Ab--5--------5\3--5p0-5p0-5-3--------0-------------------------------------------|
Eb-------------------------------------------------------------------------------|



eb-------------------------------------------------------------------------------|
Bb--7-x-7-8--7\5------------6--6-5---3--3-2--------------------------------------|
Gb--7-x-7-7--7\5------------5--5-5---2--2-2--------------------------------------|
Db--7-x-7-7--7\5------------5--5-5---2--2-2--------------------------------------|
Ab--5--------5\5--5p0-5p0-5-3--------0-------------------------------------------|
Eb-------------------------------------------------------------------------------|

Play above twice. For outro to solo, change the last two chords (after the 5p0 thing) to this:

eb-------------------------------------------------------------------------------|
Bb--6-5--3-2--1-0----------------------------------------------------------------|
Gb--5-5--2-2--0-0----------------------------------------------------------------|
Db--5-5--2-2--0-0----------------------------------------------------------------|
Ab-------------------------------------------------------------------------------|
Eb----------------0--------------------------------------------------------------|


Solo is not hard to find online.


************************************

| /   slide up
| \   slide down
| h   hammer-on
| p   pull-off
| v   vibrato
| +   harmonic
| x   Mute note
| b   Bend
| pb  Pre-bend
| br  Bend release
| pbr Pre-bend release
| ps  Pick slide
| brb Bend release bend

************************************
Suggest correction
What's this?
You can suggest a correction to this tab. Community and Mods will review your correction and vote to approve or reject it.
comments
We did not receive enough feedback on this tab! Please rate:
print report bad tab
1 2 3 4 5
guest
You may want to rate the tab now too:
select rating
Please do not post tabs as comments. Select "correction" instead!