Oops, an error
Loading. Please wait.

Spanish Fly Tab

version 1
version 1

Whole song

47,252 views 93 this week
3 commentsread comments
1 2 3 4 5
x 3
add to favorites
launch autoscroll
font size
0
reset
how to read this tab
guitar tuner
Autoscroll
slow
fast
+/-
esc
set tempo
stop
Help us to improve Ultimate-Guitar.com Take our survey!
×
e|------------------------------------------------|
B|---------------------0-----------------1--3--0--|
G|------------------2-----2-----------2-----------|
D|------------2--2-----------------2--------------|
A|------2--2--------------------0-----------------|
E|0--0--------------------------------------------|
                                                        
e|--------------------------------------------------------------------------------|
B|--------------------------------------------------------------------------------|
G|(12-7-5-0-5)(12-7-5-0-5)(12-7-5-0-5)(12-7-5-0)----------------------------------|
D|----------------------------------------------7-(12-7-5-0-5)(12-7-5-0-5)(12-----|
A|--------------------------------------------------------------------------------|
E|--------------------------------------------------------------------------------|
                             
e|-------------------------------------------------|
B|-------------------------------------------------|
G|-------------------------------------------------|
D|-7-5-0-5)(12-7-5-0)------------------------------|
A|-------------------(7--12-7)(12-6)(12-5)(12-3-0)-|
E|-------------------------------------------------|
                                                 
e|--------------------------|
B|---5-----0------12--------|
G|---5-----7------12--------|
D|5-----7-----12---------7--|
A|--------------------7--7--|
E|--------------------------|
                                                        
e|---------------------------------------------------------------|
B|---------------------------------------------------------------|
G|------------------------------4h5-----4--5--7h5h4-----4h5h7/8--|
D|---------------------4--5--7-------7---------------7-----------|
A|3h4h5/6-----5--x--7--------------------------------------------|
E|---------------------------------------------------------------|
                                        
e|--------7--8--10----------7--8--10-----------8--10--12-----------8--10--12------|
B|7h8h10------------7h8h10------------8h10h12-------------8h10h12-----------------|
G|--------------------------------------------------------------------------------|
D|--------------------------------------------------------------------------------|
A|--------------------------------------------------------------------------------|
E|--------------------------------------------------------------------------------|
                                              
e|----------x--12--14------------x--12--14------------x--13--15h13h12h----|
B|10h12h14-------------10h12h14-------------12h13h15------------------15--|
G|------------------------------------------------------------------------|
D|------------------------------------------------------------------------|
A|------------------------------------------------------------------------|
E|------------------------------------------------------------------------|
                                                
e|12--------------0--|
B|----13----------0--|
G|--------14---------|
D|------------15-----|
A|-------------------|
E|-------------------|
                                               
e|---7h5--8--7--6--5--4--5--7--5h7h5h4h---4---------------------------------------|
B|---5---------------------------------7-----7h5h4h---5h4h---4-------5h4h---4-----|
G|-------------------------------------------------7------7-----7h5------7--------|
D|---7----------------------------------------------------------------------------|
A|---0----------------------------------------------------------------------------|
E|--------------------------------------------------------------------------------|
                                                   
e|--------------------------------------------------------------------------------|
B|--------------------------------------------------------------------------------|
G|7---h5h4-----7---------4--------4--5--7h5h4-----4-------4h5-----4--5--7h5h4-----|
D|----------7-----4h5h7-----5--7---------------7-----5h7-------7------------------|
A|--------------------------------------------------------------------------------|
E|--------------------------------------------------------------------------------|
                                                                
e|-----------------------------------------------------------------|
B|-----------------------------------------------------------------|
G|---4-------4h5-----4--5--7--4--5-----5--7h5h4h---4---------------|
D|7-----5h7-------7-----------------7-----------7-----7h5h4-----4--|
A|-----------------------------------------------------------7-----|
E|-----------------------------------------------------------------|
                                                       
e|---------------------------------|
B|---------------------------------|
G|---------------------------------|
D|---------------------------------|
A|5h7h3h0h5h7h3h0h5h7h3h0h5h7h3h0--|
E|---------------------------------|
                                                                               
e|--------------------------------------------------------------------------------|
B|--------------------------------------------------------------------------------|
G|--------------------------------------------------------------------------------|
D|--------------------------------------------------------------------------------|
A|7--9--5--0--7--9--5--0--7--9--5--0--7--9--------5h-9----(12--5--9)(12--5--9)----|
E|--------------------------------------------------------------------------------|
                                            
e|--------------------------------------------------------------------------------|
B|--------------------------------------------------------------------------------|
G|-------------------(12--5--9)---(12--5--9)---(12--5--9)---(12--5--9)---(12------|
D|(12--5--9)(12--5--9)------------------------------------------------------------|
A|--------------------------------------------------------------------------------|
E|--------------------------------------------------------------------------------|
                                                  
e|--------------------------------------------------------------------------------|
B|--------------------------------------------------------------------------------|
G|4--9)---(12--4--9)---(12--4--9)---(11--4--8)---(11--4--8)---(11--4--8)---(11----|
D|--------------------------------------------------------------------------------|
A|--------------------------------------------------------------------------------|
E|--------------------------------------------------------------------------------|
                                                                   
e|--------------------------------------------------------------------------------|
B|--------------------------------------------------------------------------------|
G|4--8)---(11--4--8)---(11--4--8)---(11--4--8)------------------------------------|
D|------------------------------------------------------------------------(10-----|
A|-----------------------------------------------(9--2--7)---(10--2--7)-----------|
E|--------------------------------------------------------------------------------|
                                                                    
e|--------------------------------------------------------------------------------|
B|--------------------------------------------------------------------------------|
G|---------------------(10--3--7)---(10--3--7)---(10--3--7)---(10--3--7)---(10----|
D|4--7)---(10--3--7)--------------------------------------------------------------|
A|--------------------------------------------------------------------------------|
E|--------------------------------------------------------------------------------|
                                                                                   
e|--------------------------------------------------------------------------------|
B|--------------------------------------------------------------------------------|
G|2--7)---(10--2--7)---(10--2--7)---(10--2--7)---(9--2--6)---(9--2--6)---(9--2----|
D|--------------------------------------------------------------------------------|
A|--------------------------------------------------------------------------------|
E|--------------------------------------------------------------------------------|
                                                                        
e|--------------------------------------------------------------------------------|
B|--------------------------------------------------------------------------------|
G|6)---(9--2--6)---(9--2--6)---(9--2--6)---(9--5--7--9)---------------------------|
D|--------------------------------------------------------------------------------|
A|------------------------------------------------------5-----------(12--5--9)----|
E|--------------------------------------------------------(12--5--9)--------------|
                                                                     
e|--------------------------------------------------------------------------------|
B|--------------------------------------------------------------------------------|
G|--------------------------------------------------------------------------------|
D|-------------(12--5--9)---(12--5--9)---(12--5--9)---(12--5--9)---(12--4--9)-----|
A|--(12--5--10)-------------------------------------------------------------------|
E|--------------------------------------------------------------------------------|
                                                                                            
e|--------------------------------------------------------------------------------|
B|--------------------------------------------------------------------------------|
G|--------------------------------------------------------------------------------|
D|--(12--4--9)---(12--4--9)---(12--4--9)---(11--4--8)---(11--4--8)---(11--4--8)---|
A|--------------------------------------------------------------------------------|
E|--------------------------------------------------------------------------------|
                                                                              
e|--------------------------------------------------------------------------------|
B|--------------------------------------------------------------------------------|
G|--------------------------------------------------------------------------------|
D|--(11--4--8)---(11--4--8)---(11--4--8)---(11--4--8)---(11--4--8)----------------|
A|----------------------------------------------------------------(12--5--9)------|
E|--------------------------------------------------------------------------------|
                                                                                    
e|--------------------------------------------------------------------------------|
B|--------------------------------------------------------------------------------|
G|--------------------------------------------------------------------------------|
D|--------------------------------------------------------------------------------|
A|(12--5--9)---(12--5--9)---(12--5--9)---(12--4--9)---(12--4--9)---(12--4--9)-----|
E|--------------------------------------------------------------------------------|
                                                                                                     
e|--------------------------------------------------------------------------------|
B|--------------------------------------------------------------------------------|
G|--------------------------------------------------------------------------------|
D|--------------------------------------------------------------------------------|
A|(12--4--9)---(11--3--7)---(10--3--7)---(10--3--7)---(9--3--7)---(9--3--7)-------|
E|--------------------------------------------------------------------------------|
                                                                                                         
e|--------------------------------------------------------------------------------|
B|--------------------------------------------------------------------------------|
G|--------------------------------------------------------------------------------|
D|--------------------------------------------------------------------------------|
A|(9--3--7)---(9--2--6)---(9--2--6)---(9--2--6)---(9--2--6)---(9--2--6)---(9--6---|
E|--------------------------------------------------------------------------------|
                                                                                                      
e|--------------------------------------------------------------------------------|
B|--------------------------------------------------------------------------------|
G|--------------------------------------------------------------------------------|
D|--------------------------------------------------------------------------------|
A|2--0--2)----6----(9--6--2--0--2--6)---(9--6--2--0--2--6)---(9--6--2--0)---------|
E|-----------------------------------------------------------------------(3--2----|
                                                                                
     *                                                                            
e|---------------------------0----------------------------------------------------|
B|---------------------0--0-------------------------------------------------------|
G|---------------2--2-------------------------------------------------------------|
D|---------2--2-------------------------------------------------------------------|
A|---2--2-------------------------------------------------------------------------|
E|0)------------------------------------------------------------------------------|


************************************

| h  Hammer-on
| /  Slide up
| x  Dead note

************************************
Suggest correction
Give kudos to tab author, rate the tab!
1 2 3 4 5
comments
print report bad tab
3 comments total.
0 reply
xsuckxmyxassx 50 Jan 28, 2004 12:00 AM

could us emore detail butt besides that very nice.

0 reply
thecapn07 10 May 01, 2004 12:00 AM

i think it might be a half step down but im not sure on that. it sounds really good. as soon as im able to play this song, im quitting guitar because ill probably be so old i cant even pick one up anymore.lol

0 reply
wil 10 Mar 12, 2005 12:00 AM

i beleive this tab was knicked from mikes guitar site, theres nowt wrong with this of course, but some rhythym notation-triplets, sextuplets etc- would have been nice.
I also doubt some of the stretches -4 to 9, 2 to 7- for example were used in the recording of this song. I know how good Van Halen is and all, but substituting some of these for oopen strings make it sound much more fluent.
I know its done in a studio with lots of micing and effects, but but how the hell he gets this kind of projection out of a classical is absolutely beyond me.
It is a whole tone detuned by the way.

guest
You may want to rate the tab now too:
select rating
Wanna post a correction for this tab? Suggest correction