Oops, an error
Loading. Please wait.
We have an official Spanish Fly tab made by UG professional guitarists. Check out the tab »
×
25,187 views 12 this week
5 commentsread comments
1 2 3 4 5
x 14
add to favorites
guitar tuner
Autoscroll
slow
fast
+/-
esc
set tempo
stop
"Spanish Fly"
demo version
Play now

or get full version for Free

×
Get full version now!
Learn and play this song
in Tab Pro
Try for free

or get $10 off Welcome Bonus

Get welcome bonus
Get access to Tab Pro version of “Spanish Fly”!
Tab Pro is a premium guitar tab service, available on PC, Mac, iOS and Android
TRY FOR FREE
Your download will start in 7 seconds
×
Like this song? We have more! Follow us on Facebook for daily tips, lessons and other guitar-related content.
To download “Spanish Fly” Guitar Pro tab click button below
Please note that you must have Guitar Pro software installed on your
computer in order to view this file.
Suggest correction
comments
report bad tab
5 comments total. Showing first comments.
0 reply
Magnetor 78 Jan 14, 2009 07:37 AM

good work, the harmonics at the beginning are not completely correct, I think, but the rest is ok.... 5 stars

0 reply
Asterix_13 745 Dec 28, 2009 05:03 PM

crazy song. awesome acoustic guitar work@

0 reply
MetaIronForce 91 Jul 06, 2011 02:01 PM

The intro harmonics should be this:

TH     TH     TH     TH     TH     TH     TH     TH     TH
E E E E E E E E E
D||------------------------------------------------------------------|
A||----------------------------------------------------0---------|
F||*--------------------------------------------2---------2--|
C||*------------------------------2--2-----------------------|
G||-----------------2--2-------------------------------------|
D||---0--0---------------------------------------------------|

TH TH TH TH TH TH
E E E Q E Q H.
-------------------------------------------------|----------------||
-----------------------1-----3--0----|----------------||
----------------2----------------------------|---------------*||
---------0-----------------------------------|---------------*||
--0------------------------------------------|----------------||
-------------------------------------------------|----------------||


The number in the s is the fret you tap

guest
You may want to rate the tab now too:
select rating