Oops, an error
Loading. Please wait.

Tattoo bass

version 1
version 1

Whole song

Interactive

2,652 views 1 this week
1 commentread comment
1 2 3 4 5
3 more votes to show rating
add to favorites
×
Save as Personal and add changes to this tab that will be seen only by you. Learn more ›
×
You can save this tab as Personal to edit and correct it or add notes. All changes will be seen only by you. Learn more »
launch autoscroll
font size
0
reset
guitar tuner
backing track
0:00
0:00
edit
Autoscroll
slow
fast
+/-
esc
set tempo
stop
Author
Difficulty
-------------------------------------------------------------------------------
			     TATTOO - Van Halen
-------------------------------------------------------------------------------


Tabbed By : Isaias Garcia (TexasFury)

Tuning: Standard 5 string bass


     Intro                                                        
     W                   H           E  E  E  E  E  E  E  E   
G||-------------------|-----------|--------------------------|
D||-------------------|-----------|--------------------------|
A||-------------------|-----------|--5-----------------------|
E||-------------------|-----------|-----5-----5-----5-----5--|
B||-------------------|-----------|--------------------------|


  E  E  E  E  E    E  E  E     E  E  E  E  E  E  E  E   
----------------------------|--------------------------|
----------------------------|--------------------------|
-------------------------3--|--5-----------------------|
-----5-----5-----3g5--3-----|-----5-----5-----5-----5--|
----------------------------|--------------------------|


  E  E  E  E  E  E  Q        E  E  E  E  E  E  E  E   
--------------------------|--------------------------|
--------------------------|--------------------------|
--------------------------|--5-----------------------|
-----5-----5-----0--3/----|-----5-----5-----5-----5--|
--------------------------|--------------------------|


  E  E  E  E  E    E  E  E     E  E  E  E  E  E  E  E   
----------------------------|--------------------------|
----------------------------|--------------------------|
-------------------------3--|--5-----------------------|
-----5-----5--0--3g5--3-----|-----5-----5-----5-----5--|
----------------------------|--------------------------|


                              Verse 1                       
  E  E  E  E  E  E  Q         E  E  E  E  E  E  E  E   
--------------------------||--------------------------|
--------------------------||--------------------------|
--------------------------||--5-----------------------|
-----5-----5--L--0--3/----||-----5-----5-----5-----5--|
--------------------------||--------------------------|


  E  E  E  E  E    E  E  E     E  E  E  E  E  E  E  E   
----------------------------|--------------------------|
----------------------------|--------------------------|
-------------------------3--|--5-----------------------|
-----5-----5-----3g5--3-----|-----5-----5-----5-----5--|
----------------------------|--------------------------|


  E  E  E  E  E    E  E  E     E  E  E  E  E  E  E  E   
----------------------------|--------------------------|
----------------------------|--------------------------|
-------------------------3--|--5-----------------------|
-----5-----5-----3g5--3-----|-----5-----5-----5-----5--|
----------------------------|--------------------------|


  E  E  E  E  E    E  E  E     E  E  E  E  E  E  E  E   
----------------------------|--------------------------|
----------------------------|--------------------------|
-------------------------3--|--5-----------------------|
-----5-----5-----3g5--3-----|-----5-----5-----5-----5--|
----------------------------|--------------------------|


  E  E  E  E  E    E  E  E     E  E  E  E  E  E  E  E   
----------------------------|--------------------------|
----------------------------|--------------------------|
-------------------------6--|--8-----------------------|
-----5--5--5-----3g5--6-----|-----8-----8-----8-----8--|
----------------------------|--------------------------|


  E  E  E  E  E  E  E  E     E  E  E  E  E  E  E  E   
--------------------------|--------------------------|
--------------------------|--------------------------|
-----------------3-----3--|--5-----------------------|
-----8-----8--------3-----|-----5-----5-----5-----5--|
--------------------------|--------------------------|


                                Pre-chorus 1                           
  E  E  E  E  E    E  E  E      Q    E  E  E  E      E   E   
----------------------------||------------------------------|
----------------------------||------------------------------|
-------------------------3--||--8----8--8--8--8--10g12--12--|
-----5-----5-----3g5--3-----||------------------------------|
----------------------------||------------------------------|


   Q     E   E   E   E   Q        Q    E  E  E  S  S  E  E   
-------------------------------|----------------------------|
-------------------------------|----------------------------|
--10----10--10--10--10---------|--3----3--2--L--2h-3p-2--0--|
------------------------10\----|----------------------------|
-------------------------------|----------------------------|


  E  E  E  E    E  E  E  E     Q    E  E  E  E      E   E   
-----------4--4g5--5--------|------------------------------|
--------7-------------7-----|------------------------------|
--L--7-------------------7--|--8----8--8--8--8--10g12--12--|
----------------------------|------------------------------|
----------------------------|------------------------------|


                                  Chorus 1                       
   E   E   E   E   Q     Q        E  E  E  E  E  E  E  E   
------------------------------||--------------------------|
------------------------------||--------------------------|
--10--10--10--10--10\---------||--5-----------------------|
------------------------------||-----5-----5-----5-----5--|
------------------------------||--------------------------|


  E  E  E  E  E    E  E  E     E  E  E  E  E  E  E  E   
----------------------------|--------------------------|
----------------------------|--------------------------|
-------------------------3--|--5-----------------------|
-----5-----5-----3g5--3-----|-----5-----5-----5-----5--|
----------------------------|--------------------------|


                              Verse 2                       
  E  E  E  E  E  E  Q         E  E  E  E  E  E  E  E   
--------------------------||--------------------------|
--------------------------||--------------------------|
--------------------------||--5-----------------------|
-----5-----5-----0--3/----||-----5-----5-----5-----5--|
--------------------------||--------------------------|


  E  E  E  E  E    E  E  E     E  E  E  E  E  E  E  E   
----------------------------|--------------------------|
----------------------------|--------------------------|
-------------------------3--|--5-----------------------|
-----5-----5-----3g5--3-----|-----5-----5-----5-----5--|
----------------------------|--------------------------|


  E  E  E  E  E  E  Q        E  E  E  E  E  E  E  E   
--------------------------|--------------------------|
--------------------------|--------------------------|
--------------------------|--5-----------------------|
-----5-----5-----0--3/----|-----5-----5-----5-----5--|
--------------------------|--------------------------|


  E  E  E  E  E    E  E  E     E  E  E  E  E  E  E  E   
----------------------------|--------------------------|
----------------------------|--------------------------|
-------------------------3--|--5-----------------------|
-----5-----5-----3g5--3-----|-----5-----5-----5-----5--|
----------------------------|--------------------------|


  E  E  E  E  E    E  E  E     E  E  E  E  E  E  E  E   
----------------------------|--------------------------|
----------------------------|--------------------------|
-------------------------6--|--8-----------------------|
-----5-----5-----3g5--6-----|-----8-----8-----8-----8--|
----------------------------|--------------------------|


  E  E  E  E  E  E  E  E     E  E  E  E  E  E  E  E   
--------------------------|--------------------------|
--------------------------|--------------------------|
-----------------3-----3--|--5-----------------------|
-----8-----8--------3-----|-----5-----5-----5-----5--|
--------------------------|--------------------------|


                                   Pre-chorus 2                           
  E  E   E   E  E   E  E   E       Q    E  E  E  E      E   E   
-------------------------------||------------------------------|
-------------------------------||------------------------------|
------------12-----12----------||--8----8--8--8--8--10g12--12--|
-----5/--L----------------13\--||------------------------------|
-------------------------------||------------------------------|


   Q     E   E   E   E   Q        Q    E  E  E  S  S  E  E   
-------------------------------|----------------------------|
-------------------------------|----------------------------|
--10----10--10--10--10---------|--3----3--2--L--2h-3p-2--0--|
------------------------10\----|----------------------------|
-------------------------------|----------------------------|


  E  E  E   E   E  E   E   E     Q    E  E  E  E      E   E   
------------------------------|------------------------------|
------------------------------|------------------------------|
--L--0--0--12--12--0--10--10--|--8----8--8--8--8--10g12--12--|
------------------------------|------------------------------|
------------------------------|------------------------------|


                                  Chorus 2                       
   E   E   E   E   Q     Q        E  E  E  E  E  E  E  E   
------------------------------||--------------------------|
----------12------------------||--------------------------|
--10--10------10--10\---------||--5-----------------------|
------------------------------||-----5-----5-----5-----5--|
------------------------------||--------------------------|


  E  E  E  E  E    E  E  E     E  E  E  E  E  E  E  E   
----------------------------|--------------------------|
----------------------------|--------------------------|
-------------------------3--|--5-----------------------|
-----5-----5-----3g5--3-----|-----5-----5-----5-----5--|
----------------------------|--------------------------|


  E  E  E  E   E   E   E   E      E  E  E  E  E  E  E  E   
-------------------------------|--------------------------|
----------------------12--10\--|--------------------------|
--------------12--12-----------|--5-----------------------|
-----5--3--5-------------------|-----5-----5-----5-----5--|
-------------------------------|--------------------------|


  E  E  E  E  E    E  E  E     E  E  E  E  E  E  E  E   
----------------------------|--------------------------|
----------------------------|--------------------------|
-------------------------3--|--5-----------------------|
-----5-----5-----3g5--3-----|-----5-----5-----5-----5--|
----------------------------|--------------------------|


                                   Bridge                       
  E  E  E  E   E   E   E   E       Q    E  E  E  E  E  E   
-------------------------------||-------------------------|
----------------------12--10\--||-------------------------|
--------------12--12-----------||--1----1--1--1--1--1--3--|
-----5--3--5-------------------||-------------------------|
-------------------------------||-------------------------|


  E  E  E  E  E  E  E  E     E  E  E  E  E  E  E  E   
--------------------------|--------------------------|
--------------------------|--------------------------|
--3--3--3--3--3--3--3-----|--------------------------|
-----------------------0--|--1--1--1--3--3--3--3--5--|
--------------------------|--------------------------|


  E  E  E  E  E  E  E  E      Q    E  E  E  E  E  E   
---------------------------|-------------------------|
---------------------------|-------------------------|
---------------------------|--1----1--1--1--1--1--3--|
--L--5--5--5--5--5--5--5\--|-------------------------|
---------------------------|-------------------------|


                                 Guitar Solo                        
  E  E  E  E  E  E     Q         E  E  E  E  E  E  E  E   
-----------------------------||--------------------------|
--------5--------------------||--------------------------|
--3--3-----3--3--3--7g12\----||--5-----------------------|
-----------------------------||-----5-----5-----5-----5--|
-----------------------------||--------------------------|


  E  E  E  E  E    E  E  E     E  E  E  E  E  E  E    E   
----------------------------|----------------------------|
----------------------------|----------------------------|
-------------------------3--|--5---------------------12--|
-----5-----5-----3g5--3-----|-----5-----5-----5--L/------|
----------------------------|----------------------------|


   E   E   E  E  E    E  E  E     E  E  E  E  E  E  E  E   
-------------------------------|--------------------------|
-------------------------------|--------------------------|
--12--12\--L----------------3--|--5-----------------------|
--------------5-----3g5--3-----|-----5-----5-----5-----5--|
-------------------------------|--------------------------|


                                                      
  E  E  E  E  E    E  E  E     E  E  E  E  E  E  E  E   
----------------------------|--------------------------|
----------------------------|--------------------------|
-------------------------3--|--5-----------------------|
-----5-----5-----3g5--3-----|-----5-----5-----5-----5--|
----------------------------|--------------------------|


  E   E    E    E   E   E   E   E      Q    E  E  E  E      E   E   
------------------------------------|------------------------------|
-------------------12---------------|------------------------------|
-----12s--10s--12------12--12--12\--|--8----8--8--8--8--10g12--12--|
------------------------------------|------------------------------|
------------------------------------|------------------------------|


   Q     E   E   E   E   Q        Q    E  E  E  S  S E  E   
-------------------------------|---------------------------|
-------------------------------|---------------------------|
--10----10--10--10--10---------|--3----3--2--L--2h-3-2-----|
------------------------10\----|------------------------5--|
-------------------------------|---------------------------|


                                                       
  E  E  E  E  E  E  E  E     Q    E  E  E  E      E   E   
--------------------------|------------------------------|
-----7--7-----------------|------------------------------|
--------------------3-----|--8----8--8--8--8--10g12--12--|
--L--------5--3--5-----5--|------------------------------|
--------------------------|------------------------------|


                                          Verse 3                       
   |---3---|   |---3---|                                          
   E   E   E   E   E   E   Q     Q        E  E  E  E  E  E  E  E   
--------------------------------------||--------------------------|
--------------------------------------||--------------------------|
--10--10--10--10--10--10--10\---------||--5-----------------------|
--------------------------------------||-----5-----5-----5-----5--|
--------------------------------------||--------------------------|


  E  E  E  E  E  E  E  E     E  E  E  E  E  E  E  E   
--------------------------|--------------------------|
--------------------------|--------------------------|
-----------------------3--|--5-----------------------|
-----5-----5-----5--3-----|-----5-----5-----5-----5--|
--------------------------|--------------------------|


  E  E  E  E  E  E  E  E     E  E  E  E  E  E  E  E   
--------------------------|--------------------------|
--------------------------|--------------------------|
-----------------------3--|--5-----------------------|
-----5-----5-----5--3-----|-----5-----5-----5-----5--|
--------------------------|--------------------------|


  E  E  E  E  E  E  E  E     E  E  E  E  E  E  E  E   
--------------------------|--------------------------|
--------------------------|--------------------------|
-----------------------3--|--5-----------------------|
-----5-----5-----5--3-----|-----5-----5-----5-----5--|
--------------------------|--------------------------|


                                   Pre-chorus 3                           
  E  E  E  E    E   E   E   E      Q    E  E  E  E      E   E   
-------------------------------||------------------------------|
-------------------------------||------------------------------|
---------------12--12--10--10--||--8----8--8--8--8--10g12--12--|
-----5-----5/------------------||------------------------------|
-------------------------------||------------------------------|


   Q     E   E   E   E   E   E      E   E   E  E  E  S   S E   E   
--------------------------------|---------------------------------|
--------------------------------|--10--10--10--9--L--9h-10-9------|
--10----10--10--10--10--10--10--|-----------------------------12--|
--------------------------------|---------------------------------|
--------------------------------|---------------------------------|


   E  E  E  E  E  E  E  E     Q    E  E  E  E      E   E   
------------4--5--4--------|------------------------------|
---------7-----------7-----|------------------------------|
---L--7-----------------7--|--8----8--8--8--8--10g12--12--|
---------------------------|------------------------------|
---------------------------|------------------------------|


                                    Chorus 3                       
   E   E   E   E   Q     E  E       E  E  E  E  E  E  E  E   
--------------------------------||--------------------------|
--------------------------------||--------------------------|
--10--10--10--10--10\-----------||--5-----------------------|
----------------------------1/--||-----5-----5-----5-----5--|
--------------------------------||--------------------------|


  E  E  E  E  E    E  E  E     E  E  E  E  E  E  E  E   
----------------------------|--------------------------|
----------------------------|--------------------------|
-------------------------3--|--5-----------------------|
-----5-----5-----3g5--3-----|-----5-----5-----5-----5--|
----------------------------|--------------------------|


  E  E  E  E  E    E  E  E     E  E  E  E  E  E  E   E   
----------------------------|---------------------------|
----------------------------|---------------------------|
-------------------------3--|--5------------------------|
-----5-----5-----3g5--3-----|-----5-----5-----5-----/5--|
----------------------------|---------------------------|


  E  E  E  E  E   E  E  E     E   E  E   E  E   E  E    E   
---------------------------|-------------------------------|
------------------7--5-----|-------------------------------|
------------------------3--|--5--12-----12-----12--L\--12--|
-----5-----5--1/-----------|-------------------------------|
---------------------------|-------------------------------|


  E   E   E   E  E   E  E   E      E  E  E  E  E  E  E  E   
--------------------------------|--------------------------|
--------------------------------|--------------------------|
-----12--10--12-----12--L-------|--5-----------------------|
---------------------------12\--|-----5-----5-----5-----5--|
--------------------------------|--------------------------|


  E  E  E  E  E    E  E  E     E  E  E  E  E  E  E  E   
----------------------------|--------------------------|
----------------------------|--------------------------|
-------------------------3--|--5-----------------------|
-----5-----5-----3g5--3-----|-----5-----5-----5-----5--|
----------------------------|--------------------------|


  E  E  E  E  E    E  E  E     E  E  E  E  E  E  E  E   
----------------------------|--------------------------|
----------------------------|--------------------------|
-------------------------3--|--5-----------------------|
-----5-----5-----3g5--3-----|-----5-----5-----5-----5--|
----------------------------|--------------------------|


  E  E  E  E  E    E  E  E     E  E  E  E  E   E   E    E   
----------------------------|------------------------------|
----------------------------|------------------------------|
-------------------------3--|--5--------------12\-----/12--|
-----5-----5-----3g5--3-----|-----5-----5------------------|
----------------------------|------------------------------|


  E   E    E    E   E   E  E   E       W                   W                 
-----------------------------------|--------------------|-------------------|
-----------------------------------|--10----------------|-------------------|
-----12p--10h--12--12--12--L-------|--------------------|-------------------|
------------------------------12\--|--------------------|-------------------|
-----------------------------------|--------------------|-------------------|


  W                   W                   H        E  E  E  E   
-------------------|-------------------|-----------------------|
-------------------|-------------------|-----------------------|
-------------------|-------------------|-----------------------|
-------------------|-------------------|--5--------5--5--5--5--|
--3----------------|--1----------------|-----------------------|


  Q    E  E  E  E  Q       W                   W                 
------------------------|-------------------|-------------------|
------------------------|-------------------|-------------------|
------------------------|-------------------|-------------------|
--5----5--5--L--5--L----|--L----------------|--L----------------|
------------------------|-------------------|-------------------|


  W                  
-------------------||
-------------------||
-------------------||
--L----------------||
-------------------||




Duration Legend
---------------
W - whole
H - half
Q - quarter
E - 8th
S - 16th
. - note dotted
|-n-|  - n-tuplets


Tablature Legend
----------------
L - tied note
x - dead note
g - grace note
h - hammer on
p - pull off
S - shift slide
s - legato slide
/ -  slide into from below or out of upwards
\ -  slide into from above or out of downwards


Get my other tabs for Guitar Pro, Powertab, guitar/bass text and chords at
http://profile.ultimate-guitar.com/TexasFury/contributions/

            
            
Suggest correction
Creating personal tab
Creating personal tab
You can edit any tab online and save it as your Personal.

You can edit, replace or remove any tab part or add personal notes – all changes will be seen only by you.

Personal tabs can be accessed anytime from any device, even offline.
Learn more »
Give kudos to tab author, rate the tab!
1 2 3 4 5
comments
print report bad tab
1 comment total.
+1 reply
Trent Armitage 140 Feb 13, 2012 08:09 AM

why is it 5 string when you don't play a note on the B string?

guest
You may want to rate the tab now too:
select rating
Wanna post a correction for this tab? Suggest correction