Oops, an error
Loading. Please wait.

Unchained tab

version 2
version 2

Whole song

10,368 views 6 this week
no commentswrite comment
1 2 3 4 5
x 3
add to favorites
×
Save as Personal and add changes to this tab that will be seen only by you. Learn more ›
×
You can save this tab as Personal to edit and correct it or add notes. All changes will be seen only by you. Learn more »
launch autoscroll
font size
0
reset
how to read this tab
guitar tuner
backing track
0:00
0:00
edit
Autoscroll
slow
fast
+/-
esc
set tempo
stop
-------------------------------------------------------------------------------
                             UNCHAINED - Van Halen
-------------------------------------------------------------------------------

Tabbed by: Isaias Garcia (TexasFury)

Tuning: Drop C#


Guitar - rhythm
      Intro
                                   PM PM PM PM PM                 PM           PM
      H        Q    E  E     E  E  E  E  E  E  E  E     E  E   E  E  E  E   E  E
D#||----------------------|--------------------------|----------------------------|
A#||-------------------7--|--L--8-----------------3--|--L--4p--3-----5--6p--5-----|
F#||-------------------7--|--L--7-----------------3--|--L--3---L-----5--L---L-----|
C#||-------------------7--|--L--7-----------------3--|--L--3---L-----5--L---L-----|
G#||-------------------5--|--L--5--------------------|----------------------------|
C#||----------------------|--------0--0--0--0--0-----|------------0------------0--|


          PM PM PM PM                     PM         PM PM            PM PM PM PM
  Q    E  E  E  E  E   E     E   E    E   E   E   E  E  E     Q    E  E  E  E  E  E
--------------------------|--------------------------------|-------------------------|
--7----8--------------10--|--L--11p--10------10---8--------|--7----8--------------3--|
--7----7--------------10--|--L--10----L------10---9--------|--7----7--------------3--|
--7----7--------------10--|--L-----------10--10--10--------|--7----7--------------3--|
--5----5------------------|--------------------------------|--5----5--------------1--|
----------0--0--0--0------|--------------------------0--0--|----------0--0--0--0-----|


            PM           PM            PM PM PM PM
  E  E   E  E  E  E   E  E     Q    E  E  E  E  E   E     E   E   E   E   E   E  E  E
----------------------------|--------------------------|-------------------------------|
--L--4p--3-----5--6p--5-----|--7----8--------------10--|--L--11--10-----------8-----7--|
--L--3---L-----5--5---L-----|--7----7--------------10--|--L------10------10---9-----7--|
--L--3---L-----5--5---L-----|--7----7--------------10--|--L----------10------10-----7--|
--L--1---L------------------|--5----5---------------8--|--L----------------------------|
------------0------------0--|----------0--0--0--0------|-------------------------------|


        PM PM PM PM PM                 PM           PM            PM PM PM PM
  E  E  E  E  E  E  E  E     E  E   E  E  E  E   E  E     Q    E  E  E  E  E   E
--------------------------|----------------------------|--------------------------|
--L--8-----------------3--|--L--4p--3-----5--6p--5-----|--7----8--------------10--|
--L--7-----------------3--|--L--3---L-----5--5---L-----|--7----7--------------10--|
--L--7-----------------3--|--L--3---L-----5--5---L-----|--7----7--------------10--|
--------------------------|----------------------------|--5----5------------------|
--------0--0--0--0--0-----|------------0------------0--|----------0--0--0--0------|


                         PM             PM PM PM PM PM                 PM           PM
  E   E   E   E   E   E  E  E     E  E  E  E  E  E  E  E     E  E   E  E  E  E   E  E
-------------------------------|--------------------------|----------------------------|
--L--11--10-----------8-----7--|--L--8-----------------3--|--L--4p--3-----5--6p--5-----|
--L------10------10---9-----7--|--L--7-----------------3--|--L--3---L-----5--5---5-----|
--L----------10--10--10-----7--|--L--7-----------------3--|--L--3---L-----5--5---5-----|
----------------------------5--|--L--5-----------------1--|--L--1---------3--3---3-----|
-------------------------0-----|--------0--0--0--0--0-----|------------0------------0--|


                                                                Verse 1
          PM PM PM PM                                                      PM   SH  PM PM
  Q    E  E  E  E  E   E     E   E   E   E   E   E   E   E      Q       E  E    E   E  E 
  E
--------------------------|----------------------------------|---------------------------------|
--7----8--------------10--|--L--11--10------10---8-----------|---------------------------------|
--7----7--------------10--|--L--10--10------10---9-----------|---------------------------------|
--7----7--------------10--|--L----------10------10-----------|---------------------------------|
--5----5---------------8--|--L---------------------------3~--|--L-------5-----<>3b--------3g5--|
----------0--0--0--0------|-------------------------12\------|-------------0--------0--0-------|


                           PM             PM     PM PM                     PM       PM
  E   E  E    E  E  E   E  E     Q     E  E  E   E  E  E       E   E   E   E  E  E  E  E
------------------------------|----------------------------|------------------------------|
------------------------------|----------------------------|------10--10------8-----x-----|
---------3-------5------------|----------------------------|---------------------9--------|
------3-------------5~--L-----|------------------------5s--|--10----------10--------------|
--L~--------5g7---------------|--3~----------3b------------|---------------------------3--|
---------------------------0--|--------0--0------0--0------|------------------------0-----|


           PM     PM PM                            SH   SH                PM     PM PM
  Q     E  E  E   E  E    E     E  E  E    E  E    E    E  E     Q     E  E  E   E  E  E
-----------------------------|--------------------------------|----------------------------|
-----------------------------|--------------------------------|----------------------------|
-----------------------------|--------3----x-----<>5--<>5-----|----------------------------|
-----------------------------|-----3-------x--5---------------|------------------------5s--|
--L~----5-----3b--------3g5--|--L--------5g7---------------3--|--L~----5-----3b------------|
-----------0------0--0-------|--------------------------------|-----------0------0--0------|


                                     Pre-chorus
   E   E   E   E  E   E   E   E      E          E  E  E  E  E  E   E     E  E  E   E
----------------------------------|-----------------------------------|---------------|
------10--10------8---------------|-----------------------------------|---------------|
----------------------9---9---L\--|--7----------x--7--7--x--x--7s--5--|--7------------|
--10----------10-----10--10---L\--|--5----------x--5--5--x--x--5s--3--|--5------------|
----------------------------------|-----------------------------------|-----5--5s--3--|
----------------------------------|-----------------------------------|-----5--Ls--3--|


  E  E  Q    E  E  E  E     E   E  E  E  E  E     E  E  E  E  E  E  E  E     E   E  E  E 
E  E
-------------------------|---------------------|--------------------------|---------------------|
-------------------------|---------------------|--------------------------|---------------------|
--x--x--7----7-----x--x--|--7s--5--7-----------|--x--x--9-----9-----x--x--|--9s--7--9-----------|
--x--x--5----5-----x--x--|--5s--3--5--3--L-----|--x--x--7--x--7-----x--x--|--7s--5--7--7--L--5--|
-------------------------|------------3--L--7--|--------------------------|------------7--L--5--|
----------------5--------|------------3--L--7--|-----------------7--------|------------7--L--5--|


                                                       Chorus 1
                                                                   PM PM PM PM PM
  E  E  Q    E  E  E  E     E  E  E  E  E  E  E  E     E        E  E  E  E  E  E  E
-------------------------|--------------------------|--------------------------------|
-------------------------|-----------------------7--|--L--------8-----------------3--|
-----x--9----9-----------|-----------------------7--|--L--------7-----------------3--|
--x--x--7----7-----------|-----------------------7--|--L--------7-----------------3--|
----------------------7--|-----6-----5-----3-----5--|--L--------5--------------------|
----------------5--L--7--|-----6-----5-----3--------|--------------0--0--0--0--0-----|


            PM           PM            PM PM PM PM                    PM         PM PM
  E  E   E  E  E  E   E  E     Q    E  E  E  E  E   E     E   E   E   E   E   E  E  E
----------------------------|--------------------------|-------------------------------|
--L--4p--3-----5--6p--5-----|--7----8--------------10--|--L--11--10------10---8--------|
--L--3---3-----5--5---5-----|--7----7--------------10--|--L--10--10------10---9--------|
--L--3---3-----5--5---5-----|--7----7--------------10--|--L----------10------10--------|
----------------------------|--5----5------------------|-------------------------------|
------------0------------0--|----------0--0--0--0------|-------------------------0--0--|


          PM PM PM PM                PM          PM            PM PM PM PM
  Q    E  E  E  E  E  E     E  E  E  E  E  E  E  E     Q    E  E  E  E  E   E
-------------------------|--------------------------|--------------------------|
--7----8--------------3--|-----4--3--------6--5-----|--7----8--------------10--|
--7----7--------------3--|--L-----3-----5--5--5-----|--7----7--------------10--|
--7----7--------------3--|--L-----3-----5--5--5-----|--7----7--------------10--|
--5----5--------------1--|--L-----------------------|--5----5------------------|
----------0--0--0--0-----|-----------0-----------0--|----------0--0--0--0------|


                                    Verse 1
              PM                            PM PM   SH  PM PM                            
  PM PM
  E   E   E   E   E   E   E   E     Q       E  E    E   E  E    E     E   E  E    E  E  E  E  E
---------------------------------|---------------------------------|------------------------------|
--L--11--10-----------8----------|---------------------------------|------------------------------|
--L--10--10------10---9----------|---------------------------------|---------3-------5------------|
--L----------10------10----------|---------------------------------|------3-------------5~--------|
-------------------------10~--3--|--L-------5-----<>3b--------3g5--|--L~--------5g7---------------|
---------------------------------|-------------0--------0--0-------|------------------------0--0--|


    SH    PM PM     PM PM                 PM  PM         PM                PM     PM PM
    Q     E  E  E   E  E  E       E   E   E   E  E   E   E  E      Q    E  E  E   E  E   
E
------------------------------|---------------------------------|----------------------------|
------------------------------|------10----------8-------x------|----------------------------|
------------------------------|----------------------9\---------|----------------------------|
--------------------------5s--|--10------10--10-----10\---------|----------------------------|
--<>3~----------3b------------|-----------------------------3~--|--L----5-----3b--------3g5--|
----------0--0------0--0------|--------------------------0------|----------0------0--0-------|


                      PH                 PM PM     PM PM
  E   E  E    E  E    E  E   E     Q     E  E  E   E  E  E       E   E   E   E  E   E   E  E
--------------------------------|----------------------------|----------------------------------|
--------------------------------|----------------------------|------10--10------8---------------|
---------3-------5--------------|----------------------------|----------------------9---9---L\--|
------3-------------<>5--L~-----|------------------------7s--|--10----------10-----10--10---L\--|
--L~--------5g7--------------3--|--L~----5-----3b------------|----------------------------------|
--------------------------------|-----------0------0--0------|----------------------------------|


  Pre-chorus
  E          E  E  E  E  E  E   E     E  E  E   E     E  E  E  E  E  E  E  E
-----------------------------------|---------------|--------------------------|
-----------------------------------|---------------|--------------------------|
--7----------x--7--7--x--x--7s--5--|--7------------|--x--x--7--x--7-----x--x--|
--5----------x--5--5--x--x--5s--3--|--5------------|--x--x--5--x--5-----x--x--|
-----------------------------------|-----5--Ls--3--|--------------------------|
-----------------------------------|-----5--Ls--3--|-----------------5--------|


  E   E  E  E  E   E     E  E  E  E  E  E  E  E     E   E  E  E  E  E     E  E  E  E  E  E E  E
----------------------|--------------------------|---------------------|--------------------------|
----------------------|--------------------------|---------------------|--------------------------|
--7s--5--7------------|--x--x--9--x--9-----x--x--|--9s--7--9-----------|--x--x--9--x--9-----------|
--5s--3--5------------|--x--x--7--x--7-----x--x--|--7s--5--7-----------|--x--x--7--x--7-----------|
------------3--LS--7--|--------------------------|------------7--L--5--|-----------------------7--|
------------3--LS--7--|-----------------7--------|------------7--L--5--|-----------------5-----7--|


                             Chorus 2
                                         PM PM PM PM PM                 PM           PM
  E  E  E  E  E  E  E  E     E        E  E  E  E  E  E  E     E  E   E  E  E  E   E  E
--------------------------|--------------------------------|----------------------------|
-----------------------7--|--L--------8-----------------3--|--L--4p--3-----5--6p--5-----|
-----------------------7--|--L--------7-----------------3--|--L--3---3-----5--5---5-----|
-----------------------7--|--L--------7-----------------3--|--L--3---3-----5--5---5-----|
-----6-----5-----3-----5--|--L--------5--------------------|----------------------------|
-----6-----5-----3--------|--------------0--0--0--0--0-----|------------0------------0--|


          PM PM PM PM                    PM         PM PM            PM PM PM PM
  Q    E  E  E  E  E   E     E   E   E   E   E   E  E  E     Q    E  E  E  E  E  E
--------------------------|-------------------------------|-------------------------|
--7----8--------------10--|--L--11--10------10---8--------|--7----8--------------3--|
--7----7--------------10--|--L--10--10------10---9--------|--7----7--------------3--|
--7----7--------------10--|--L----------10------10--------|--7----7--------------3--|
--5----5------------------|-------------------------------|--5----5-----------------|
----------0--0--0--0------|-------------------------0--0--|----------0--0--0--0-----|


            PM          PM            PM PM PM PM                    PM
  E  E   E  E  E  E  E  E     Q    E  E  E  E  E   E     E   E   E   E   E   E   Q
---------------------------|--------------------------|--------------------------------|
--L--4p--3-----5--6--5-----|--7----8--------------10--|--L--11--10------10---8---8\----|
--L--3---3-----5--5--5-----|--7----7--------------10--|--L--10--10------10---9---9\----|
--L--3---3-----5--5--5-----|--7----7--------------10--|--L----------10------10--10\----|
---------------------------|--5----5------------------|--------------------------------|
------------0-----------0--|----------0--0--0--0------|--------------------------------|


  Guitar Solo
  Q           E  E  E  E  Q       E  E   E  E     Q    Q    E  E  Q       Q    E  E   E  E
-------------------------------|---------------|-----------------------|--------------------|
-------------------------------|---------------|-----------------------|--------------------|
-------------------------------|---------------|-----------------------|--------------------|
--------------5--------x--5----|--5------------|-------5----5----------|--5----5------------|
-------------------------------|---------------|-----------------------|--------------------|
--5--------------5-------------|-----5~--L--3--|---------------3-------|----------3~--L--7--|


  E  E  Q    E  E  Q       E   E   E  E   E  E     E  E  Q    E  E   E  E
------------------------|-----------------------|--------------------------|
------------------------|-----------------------|--------------------------|
------------------------|-----------------------|--------------------------|
-----x--7----7----------|--7s--5s--7------------|-----x--7----7------------|
------------------------|-----------------------|--------------------------|
----------------7-------|-------------7~--L--5--|----------------5~--L--7--|


                             Chorus 3
                                         PM PM PM PM PM                 PM           PM
  E  E  E  E  E  E  E  E     E        E  E  E  E  E  E  E     E  E   E  E  E  E   E  E
--------------------------|--------------------------------|----------------------------|
-----------------------7--|--L--------8-----------------3--|--L--4p--3-----5--6p--5-----|
-----------------------7--|--L--------7-----------------3--|--L--3---3-----5--5---5-----|
-----------------------7--|--L--------7-----------------3--|--L--3---3-----5--5---5-----|
-----6-----5-----3-----5--|--L--------5--------------------|----------------------------|
-----6-----5-----3--------|--------------0--0--0--0--0-----|------------0------------0--|


          PM PM PM PM                    PM         PM PM            PM PM PM PM
  Q    E  E  E  E  E   E     E   E   E   E   E   E  E  E     Q    E  E  E  E  E  E
--------------------------|-------------------------------|-------------------------|
--7----8--------------10--|--L--11--10------10---8--------|--7----8--------------3--|
--7----7--------------10--|--L--10--10------10---9--------|--7----7--------------3--|
--7----7--------------10--|--L----------10------10--------|--7----7--------------3--|
--5----5------------------|-------------------------------|--5----5-----------------|
----------0--0--0--0------|-------------------------0--0--|----------0--0--0--0-----|


            PM           PM            PM PM PM PM                    PM     PM
  E  E   E  E  E  E   E  E     Q    E  E  E  E  E   E     E   E   E   E   E  E  Q
----------------------------|--------------------------|------------------------------|
--L--4p--3-----5--6p--5-----|--7----8--------------10--|--L--11--10------10-----------|
--L--3---3-----5--5---5-----|--7----7--------------10--|--L--10--10------10--9--------|
--L--3---3-----5--5---5-----|--7----7--------------10--|--L----------10---------------|
----------------------------|--5----5------------------|------------------------9\----|
------------0------------0--|----------0--0--0--0------|------------------------------|


  Bridge                                  fingerpicked
                                          |--------3--------|    |----3----|
  W                   W                   Q            Q    Q    Q    Q    Q
-------------------|-------------------|----------------------------------------|
-------------------|-------------------|--8------------8----8----8----7----7----|
-------------------|-------------------|--7------------7---------7----7----7----|
-------------------|-------------------|-------------------------9----7----7----|
--0----------------|--L----------------|----------------------------------------|
-------------------|-------------------|----------------------------------------|


                              |----3----|    |----3----|
  S E.    Q    E  E  E  E     Q    Q    Q    Q    Q    Q       E  E  Q    E  E    Q
---------------------------|--------------------------------|--------------------------|
----7---7g8----7-----------|--------------------------------|--------------------------|
----------7----7-----------|--0----0----0----0----0----0----|-----2--2----L--L/---x----|
----------7-------7--7-----|--2----2----2----2----2----2----|-----2--2----L--L/---x----|
------------------------0--|--L-----------------------------|--L-----------------------|
---------------------------|--------------------------------|--------------------------|


                         use pick
  W                   S  S        E  S  S   E   S   E   S   E   S   S
-------------------|--------------------------------------------------|
--8----------------|----14p------12----12h-14--14p-12--12h-14--14p-12-|
--9----------------|----14p------12----12h-14--14p-12--12h-14--14p-12-|
-------------------|--------------------------------------------------|
-------------------|--------------------------------------------------|
-------------------|--------------------------------------------------|


       fingerpicked                         fret at 7th, tap at 19th
                                            NH                       NH      NH
                                    |----------------3---------------|       |-----3----|
  Q    Q            E   E  E  E     Q       Q                        Q       Q    Q     Q
---------------------------------|------------------------------------------------------------|
-------7------------7h--8--8--8--|-------<>19---------------------<>19----<>19----7-----------|
-------7------------7------7--7--|-------<>19-----------------------19----<>19----7-----------|
-------7------------7------7-----|------------------------------------------------------0-----|
---------------------------------|-----------------------------------------------------(0)----|
---------------------------------|------------------------------------------------------------|


                                                                 use pick
                                                                                PM PM
  |----3----|    |----3----|
  Q    Q    Q    Q    Q    Q       H.           E  E     Q    E  E        E  E  E  E
--------------------------------|---------------------|-------------------------------|
--------------------------------|---------------------|-------------------------------|
-------0----0----0----0----2----|--L------------L--L--|--x----------------------------|
-------2----2----2----2----2----|--L------------L--L--|--2----------------------2--2--|
--------------------------------|---------------------|----------0--------0--0--0--0--|
--------------------------------|---------------------|-------------------------------|


                             Chorus 4
  PM PM                                  PM PM PM PM PM                 PM           PM
  E  E  E  E  E  E  E  E     E        E  E  E  E  E  E  E     E  E   E  E  E  E   E  E
--------------------------|--------------------------------|----------------------------|
-----------------------7--|--L--------8-----------------3--|--L--4p--3-----5--6p--5-----|
--------2--2--2--2-----7--|--L--------7-----------------3--|--L--3---3-----5--5---5-----|
--2--2--2--2--2--2-----7--|--L--------7-----------------3--|--L--3---------5--5---5-----|
--0--0--0--0--0--0-----5--|--L--------5--------------------|----------------------------|
--------------------------|--------------0--0--0--0--0-----|------------0------------0--|


          PM PM PM PM                    PM         PM PM            PM PM PM PM
  Q    E  E  E  E  E   E     E   E   E   E   E   E  E  E     Q    E  E  E  E  E  E
--------------------------|-------------------------------|-------------------------|
--7----8--------------10--|--L--11--10------10---8--------|--7----8--------------3--|
--7----7--------------10--|--L--10--10------10---9--------|--7----7--------------3--|
--7----7--------------10--|--L----------10------10--------|--7----7--------------3--|
--5----5------------------|-------------------------------|--5----5-----------------|
----------0--0--0--0------|-------------------------0--0--|----------0--0--0--0-----|


            PM           PM            PM PM PM PM                    PM         PM PM
  E  E   E  E  E  E   E  E     Q    E  E  E  E  E   E     E   E   E   E   E   E  E  E
----------------------------|--------------------------|-------------------------------|
--L--4p--3-----5--6p--5-----|--7----8--------------10--|--L--11--10------10---8--------|
--L--3---2-----5--5---5-----|--7----7--------------10--|--L--10--10------10---9--------|
--L--3---3-----5--5---5-----|--7----7--------------10--|--L----------10------10--------|
----------------------------|--5----5---------------8--|--L----------------------------|
------------0------------0--|----------0--0--0--0------|-------------------------0--0--|


          PM PM PM PM                 PM           PM            PM PM PM PM
  Q    E  E  E  E  E  E     E  E   E  E  E  E   E  E     Q    E  E  E  E  E   E
-------------------------|----------------------------|--------------------------|
--7----8--------------3--|--L--4p--3-----5--6p--5-----|--7----8--------------10--|
--7----7--------------3--|--L--3---3-----5--5---5-----|--7----7--------------10--|
--7----7--------------3--|--L--3---3-----5--5---5-----|--7----7--------------10--|
--5----5-----------------|----------------------------|--5----5------------------|
----------0--0--0--0-----|------------0------------0--|----------0--0--0--0------|


              PM         PM PM            PM PM PM PM                 PM           PM
  E   E   E   E   E   E  E  E     Q    E  E  E  E  E  E     E  E   E  E  E  E   E  E
-------------------------------|-------------------------|----------------------------|
--L--11--10------10---8--------|--7----8--------------3--|--L--4p--3-----5--6p--5-----|
--L--10--10------10---9--------|--7----7--------------3--|--L--3---3-----5--5---5-----|
--L----------10------10--------|--7----7--------------3--|--L--3---3-----5--5---5-----|
-------------------------------|--5----5-----------------|----------------------------|
-------------------------0--0--|----------0--0--0--0-----|------------0------------0--|


          PM PM PM PM PM    PM
  Q    E  E  E  E  E  E     E   E   E   E   E   E   E    E      E   E   E   E   E   E   E  E
-------------------------|----------------------------------|----------------------------------|
--7----8-----------------|---------10--10--10---8---L-------|------10--10--10--10---8---L--11--|
--7----7-----------------|-----10--10--10--10---9---L--/10--|---L--10--10--10--10---9---L--10--|
--7----7-----------------|-----10--10--10--10--10---L--/10--|---L--10--10--10--10--10---L--10--|
--5----5-----------------|------8---8---8---8---------------|----------------------------------|
----------0--0--0--0--0--|--0-------------------------------|----------------------------------|


   E   E   E   E   E   E   E  E     W                   W                   W
---------------------------------|-------------------|-------------------|-------------------|
---L--10--10--10--10---8---8--7--|--L----------------|--L----------------|--L----------------|
---L--10--10--10--10---9---9--7--|--L----------------|--L----------------|--L----------------|
---L--10--10--10--10--10--10--7--|--L----------------|--L----------------|--L----------------|
-------8---8---8---8----------5--|--L----------------|--L----------------|--L----------------|
------------------------------0--|--L----------------|--L----------------|--L----------------|


  W                   W
-------------------|-------------------||
--L----------------|--L----------------||
--L----------------|--L----------------||
--L----------------|--L----------------||
--L----------------|--L----------------||
--L----------------|--L----------------||


Guitar - lead

  m.65                     Guitar Solo
                     \1/                 \1/    \1/       T          T       T
                                                                             |---3--|
  H        Q    E    E     H             Q.     E      S  S  S   S   S   S   S  S   S
------------------------|---------------------------|---------------------------------|
------------------------|---------------------------|---------------------------------|
-------------------<>5--|--L-----------<>3----------|----12p-7h-10h-12p-10h-12p-7h-10-|
------------------------|-----------------------0---|--L------------------------------|
------------------------|---------------------------|---------------------------------|
------------------------|---------------------------|---------------------------------|


    Octaver on...........               off.
                                        |--------3--------|
    E                    E   E     E    Q        Q        Q           Q     H
---------------------------------------------------------------|------------------------|
---------------------------------------15----18g15----18g15----|--18g15----17pbr--------|
---------------------------------------------------------------|------------------------|
---10b-------------------L---8----10---------------------------|------------------------|
---------------------------------------------------------------|------------------------|
--(10)b------------------L--(8)--(10)--------------------------|------------------------|


                                             W
   E   E   E   E   S    S  S  S  S  E.       E    E    E   E   E   E
-----------------------------------------|----------------17------------|
---L--18--19--20--19br--L-17-------------|--------------------20--20b~--|
-----------------------------19-21-17b---|--17s--14s--17----------------|
-----------------------------------------|------------------------------|
-----------------------------------------|------------------------------|
-----------------------------------------|------------------------------|


   E    E   E   E   E   E   E   E      E   E   E   E    H            W
-------------------19------17--20--|--19--20--19--20b---L~--------|-------------------|
--20b---L---L--17------20----------|------------------------------|-------------------|
-----------------------------------|------------------------------|-------------------|
-----------------------------------|------------------------------|-------------------|
-----------------------------------|------------------------------|-------------------|
-----------------------------------|------------------------------|-------------------|


  m.80                slide guitar                          Bridge
                                   \0/   \0/  \0/                           \1/
                                                                      |-----3-----|
  W                   Q            Q     Q    E   E         H         Q     Q     Q
-------------------|----------------------------------|---------------------------------|
-------------------|----------------------------------|---------------------------------|
-------------------|---------------9----10----9---7~--|--9g14---------L----14----12\----|
-------------------|----------------------------------|---------------------------------|
-------------------|----------------------------------|---------------------------------|
-------------------|----------------------------------|---------------------------------|


                  octaver on
                                             \1/
                  |--------3--------|
     Q    E   E   Q          Q      Q        H        H           W
------------------------------------------|--------------------|-------------------|
------------------------------------------|--------------------|-------------------|
--5g10----9s--7---9s---------7s-----5-----|--------------------|-------------------|
------------------------------------------|--5--------7--------|-------------------|
-----------------(7)--------(5)----(3)----|--------------------|-------------------|
------------------------------------------|--------------------|-------------------|


                                          no slide
                                                                        |-----3-----|
  W                   W                   H        E   S   S E   E      Q     Q     Q    
H
-------------------|-------------------|------------------------14--|--14----14-----------------|
-------------------|-------------------|--------------15h-17--------|--------------17-----L-----|
-------------------|-------------------|----------------------------|---------------------------|
-------------------|-------------------|----------------------------|---------------------------|
-------------------|-------------------|----------------------------|---------------------------|
-------------------|-------------------|----------------------------|---------------------------|


                                              PM
                                  |-----3-----|    |------3-----|
   E    E   H         E    E      Q      Q    Q    Q    Q    E  E      W
-----------17--------17s--15--|--15s----14--------------------------|-------------------|
--17p--15---------------------|-------------------------------------|-------------------|
---------------------14s--12--|--12s----11----9----9----7----9--L\--|-------------------|
------------------------------|-------------------------------------|-------------------|
------------------------------|-------------------------------------|-------------------|
------------------------------|-------------------------------------|-------------------|

  Chorus 4 - m.103
                                                      TP  TP  TP  TP  TP  TP
  Q                E  E   E   E  E    E      E    E   E   E   E   E   E   E
-----------------------------------------|-----------------------------------|
-----------------------------------------|-----------------------------------|
-----------------------------------------|-----------------------------------|
----------------------5s--5s--6--7s--10--|--10s--12--12--12--12--12--12--12--|
-----------------------------------------|-----------------------------------|
----------------------5s--5s--6--7s--10--|-----------------------------------|


   TP
   E   E  E   S  S  E   S  S  E    E      E    E   S  S  E   E     E   S   S  E
--------------------------------------|------------------------------------------|
-------------20-20-20--18-18-18s--17--|--17s--15--15-15-15\------------------10--|
--------------------------------------|-------------------------------10h-12-----|
--12--12-----17-17-17--15-15-15s--14--|--14s--12--12-12-12\-----5g12-------------|
--------------------------------------|------------------------------------------|
--------------------------------------|------------------------------------------|


                                                                T                T
   E   E    E   S   S   E   E    Q         E   E    E   S   S   E    S   S   S   S   S   S
---------------------------------------|----------------------------------------------------|
--13--13b---L--13p-10h-13--13b---L~----|---L--13b---L--10h-13h-15p--13p-10h-13h-17p-13p-10h-|
---------------------------------------|----------------------------------------------------|
---------------------------------------|----------------------------------------------------|
---------------------------------------|----------------------------------------------------|
---------------------------------------|----------------------------------------------------|


       T               T               T
                                           |---3---|  |--3--|
   S   S   S   S   S   S   S   S   S   S   S   S   S  S  S  S  E
------------------------------------------------------------------|
--13h-15p-13p-10h-13h-17p-13p-10h-13h-15p-13p-12p-10----10--------|
-----------------------------------------------------12----12-10--|
------------------------------------------------------------------|
------------------------------------------------------------------|
------------------------------------------------------------------|


                       PM
   E    E   Q      E   E   E   E      Q     E   E   E  E   E     E
----------------------------------|---------------------------------|
------------------10----------10--|--------10-----------------------|
---L~--10---------10----------10--|--------10--10--10--9/-----6g10--|
-----------12\--------10--12------|--12-----------------------------|
----------------------------------|---------------------------------|
----------------------------------|---------------------------------|


   E   E   E  E   E    E   E    E       E   E     E   E   E   E   E   E
-------------------------------13b--|---L--13pb--13--12--11--10-----------|
-----------------13b--13---L~-------|----------------------------13--13b--|
---L--10--10--9---------------------|-------------------------------------|
------------------------------------|-------------------------------------|
------------------------------------|-------------------------------------|
------------------------------------|-------------------------------------|


                                                       |---3---|
   Q     S  S  T  T   T  T  S   T   T  T  T  S  S   S  S   S   S
------------------------------------------------------------------|
---L----10----10--------10---------------12-----------------------|
-----------13----13p-12----12b--Lp-10-12----12-10h-11-------------|
------------------------------------------------------------------|
------------------------------------------------------12p-11p-10s-|
------------------------------------------------------------------|


                                                 dump trem to tonic
                                        \4/      \1/
  E    E    S   S  S  S  E.   S Q       H        H                     W
-------------------------------------|------------------------------|-------------------|
-------------------------------------|------------------------------|-------------------|
-------------------------------------|------------------------------|-------------------|
-------------------------------------|------------------------------|-------------------|
--9s--10h--12p-10s-9s-7s-5s---3-L----|--0--------0------------------|-------------------|
-------------------------------------|------------------------------|-------------------|

Duration Legend
---------------
W - whole
H - half
Q - quarter
E - 8th
S - 16th
T - 32nd
X - 64th
. - note dotted
|-n-|  - n-tuplets


Tablature Legend
----------------
L - tied note
x - dead note
g - grace note
(n) - ghost note
> - accentuded note
NH - natural harmonic
AH - artificial harmonic
TH - tapped harmonic
SH - semi harmonic
PH - pitch harmonic
h - hammer on
p - pull off
b - bend
br - bendRelease
pb - preBend
pbr - preBendRelease
brb - bendReleaseBend
\n/ - tremolo bar dip
\n - tremolo bar dive
-/n - tremolo bar Release up
/n\ - tremolo bar inverted dip
/n - tremolo bar return
-\n - tremolo bar Release down
S - shift slide
s - legato slide
/ -  slide into from below or out of upwards
\ -  slide into from above or out of downwards
~ - vibrato
W - wide vibrato
tr - trill
TP - tremolo picking
T - tapping
S - slap
P - pop
< - fade in
^ - brush up
v - brush down
Suggest correction
Creating personal tab
Creating personal tab
You can edit any tab online and save it as your Personal.

You can edit, replace or remove any tab part or add personal notes – all changes will be seen only by you.

Personal tabs can be accessed anytime from any device, even offline.
Learn more »
Give kudos to tab author, rate the tab!
1 2 3 4 5
comments
print report bad tab
guest
You may want to rate the tab now too:
select rating
Wanna post a correction for this tab? Suggest correction