Oops, an error
Loading. Please wait.

When Its Love Live tab

version 3
version 3

Whole song

  • It is for the Live: Right Here, Right Now version.... Show more

Interactive

67 views 3 this week
no commentswrite comment
1 2 3 4 5
3 more votes to show rating
add to favorites
×
Save as Personal and add changes to this tab that will be seen only by you. Learn more ›
×
You can save this tab as Personal to edit and correct it or add notes. All changes will be seen only by you. Learn more »
launch autoscroll
font size
0
reset
how to read this tab
guitar tuner
backing track
0:00
0:00
edit
Autoscroll
slow
fast
+/-
esc
set tempo
stop
Song: When It's Love (Live)
Artist: Van Halen
Album: Live: Right Here, Right Now


[Intro]

e|---------------------------------------------------------------------------|
B|-7-8-10---------7-8-10--8h10p8\-----7-8-10--------7-8-10-10/15-15-15b17r15-|
G|--------9-6--------------------------------9-6-----------------------------|
D|------------7--------------------7-------------7---------------------------|
A|---------------------------------------------------------------------------|
E|---------------------------------------------------------------------------|
                                          PH (Pick      PH (Pick 
                              PH (Pick   above neck     above 22
                            b/t pickups)   pickup)       fret)          <
e|-------------------------|------------|----------|---------------|---------|
e|-8---------8-------------|------------|----------|---------------|----6----|
G|---7-----7---7-----7b9r7-|--7b9r7-----|---7------|---7b9r7b9r7---|----5----|
D|-----10--------10--------|------------|----------|---------------|----3----|
A|-------------------------|------------|----------|---------------|---------|
E|-------------------------|------------|----------|---------------|---------|


[Verse 1]
(Main Riff)                       P.M....
e|------------------------------------------|--------------------------------|
B|------------------------------------------|--------------------------------|
G|-7-----5---7---9-9--7-----5---7---------5-|------0DB---12WU-12WU 12WU------|
D|-7-----5-7-7---7-7--7-----5-7-7---------5-|-x2-----------------------------|
A|-5--/7-----------------/7-------1-1-1-1-3-|--------------------------------|
E|------------------------------------------|--------------------------------|

                                        1st Ending         2nd Ending
                                         P.M.....
e|--------------------------------|----|-----------|-----|-------------|------------|
B|--------------------------------|----|-----------|-----|-------------|------------|
G|-7-----5---7---9-9--7-----5---7-|----|---------5-|-----|-5-----5-----|------------|
D|-7-----5-7-7---7-7--7-----5-7-7-|-x2-|---------5-|-----|-5-----5-----|------------|
A|-5--/7-----------------/7-------|----|-1-1-1-1-3-|-----|-3-----3-----|------------|
E|--------------------------------|----|-----------|-----|---3-5---3-5-|------------|


[Chorus 1]
                                            1st Ending           2nd Ending
e|-----------------------------|----|-14-----------------------|-2-2---0-0---|
B|-----------------------------|----|----15--------------------|-3-3---3-3---|
G|-7---7-7---------------------|----|-------14---11b12r11------|-2-2---2-2---|
D|-7---7-7---7---7-7---9---9-9-|-x2-|-----------------------12-|-0-0---0-0---|
A|-5---5-5---7---7-7---9---9-9-|----|--------------------------|-------------|
E|-----------5---5-5---7---7-7-|----|--------------------------|-------------|


[Post-Chorus 1] Play main riff 3 times. This is played after the first time. Same as Intro.

                               PH (Pick       PH (Pick 
                PH (Pick       above neck     above 22
               b/t pickups)    pickup)         fret) 
e|------------|------------|---------------|---------------------------------|
e|------------|------------|---------------|---------------------------------|
G|--7b9r7-----|--7b9r7-----|------7--------|---7b9r7b9r7---------------------|
D|------------|------------|---------------|---------------------------------|
A|------------|------------|---------------|---------------------------------|
E|------------|------------|---------------|---------------------------------|


[Verse 2] Same as verse 1.


[Chorus 2]
                                         1st Ending              2nd Ending
e|-----------------------------|----|-14-----------------------|-3-3---2-2---|
B|-----------------------------|----|----15--------------------|-3-3---3-3---|
G|-7---7-7---------------------|----|-------14-12--------------|-2-2---2-2---|
D|-7---7-7---7---7-7---9---9-9-|-x2-|-------------4b5r4--------|-0-0---0-0---|
A|-5---5-5---7---7-7---9---9-9-|----|-------------------5------|-------------|
E|-----------5---5-5---7---7-7-|----|--------------------------|-------------|


[Bridge 1]
P.M......  ......  ..  ......  ......  ..
e|---------------------------------------------------------------------------|
B|-------6-------6---6-------8-------8---8-----------------------------------|
G|-------5-------5---5-------7-------7---7-----------------------------------|
D|-3-3-3-3-3-3-3-3-3-3-5-5-5-5-5-5-5-5-5-5-----------------------------------|
A|---------------------------------------------------------------------------|
E|---------------------------------------------------------------------------|

P.M......  ......  ..  ..
e|--------------------------------8-7-------------------------------------------------------15bv--|
B|-------6-------6---6---8----/10-----8-10-----------6--------------------------------------------|
G|-------5-------5---5---7-----------------10\---5/7---------------10-12b14r12-12p10-12b14--------|
D|-3-3-3-3-3-3-3-3-3-3-5-5-5---------------------------------10-12--------------------------------|
A|--------------------------------------------------------12--------------------------------------|
E|------------------------------------------------------------------------------------------------|


[Solo]

e|-------------12b14r12b14-12b14-12b14-12b14-10/8-8\10-10--------------------|
B|-------13------------------------------------------------------------------|
G|-12b14---------------------------------------------------------------------|
D|---------------------------------------------------------------------------|
A|---------------------------------------------------------------------------|
E|---------------------------------------------------------------------------|

e|-----10----12b14------------------10---------------------------------------|
B|-------------------10-13b15-13b15----13p10---------------------------------|
G|-/12----12---------------------------------12-12b14-12b14r12p10-12-10-12v--|
D|---------------------------------------------------------------------------|
A|---------------------------------------------------------------------------|
E|---------------------------------------------------------------------------|

e|---------------------------------------------------------------------------|
B|-12-15b18r16b18-15b18-15b18-15b18r15-15p13-15b(slight-bend)----------------|
G|---------------------------------------------------------------------------|
D|---------------------------------------------------------------------------|
A|---------------------------------------------------------------------------|
E|---------------------------------------------------------------------------|

e|-------------------------------|-10-------------|----10--------------------|
B|-------------------------13b15-|----13p10h13p10-|--------------------------|
G|----10-12b14r12p10----10-------|----------------|-------12b13r12p10-12b14--|
D|-12----------------12----------|----------------|-x3-----------------------|
A|-------------------------------|----------------|--------------------------|
E|-------------------------------|----------------|--------------------------|


[Bridge 2]

P.M......  ......  ..  ......  ......  .. 
e|---------------------------------------------------------------------------|
B|-------6-------6---6-------8-------8---8-----------------------------------|
G|-------5-------5---5-------7-------7---7-----------------------------------|
D|-3-3-3-3-3-3-3-3-3-3-5-5-5-5-5-5-5-5-5-5-----------------------------------|
A|---------------------------------------------------------------------------|
E|---------------------------------------------------------------------------|

P.M......  ......  ..  .. ..
e|---------------------------------------------------------------------------|
B|-------6-------6---6---8-----13p12-----------------------------------------|
G|-------5-------5---5---7-----------12-14-----------------------------------|
D|-3-3-3-3-3-3-3-3-3-3-5-5-5---------------15--------------------------------|
A|--------------------------------------------17-----------------------------|
E|---------------------------------------------------------------------------|

e|----------------------------------20-17---------------------------------------------|
B|----------------------------17-20----------17h20p17----17---------------------------|
G|-------14-------------14-17-------------------------19----19b21-19b21r19---0WD-12WU-|
D|-12-15----------14-17---------------------------------------------------------------|
A|-------------17---------------------------------------------------------------------|
E|------------------------------------------------------------------------------------|


[Chorus 3]
                                          1st Ending         2nd Ending              3rd Ending
B|-----------------------------|----|-2------------------|-14----------------------|-2---------------|
B|-----------------------------|----|---3----------------|----15-------------------|---3-------------|
G|-7---7-7---------------------|----|-----2-0------------|-------14-12-11b12r11----|-----2-0---------|
D|-7---7-7---7---7-7---9---9-9-|-x3-|---------4b5r4------|----------------------12-|---------4b5r4---|
A|-5---5-5---7---7-7---9---9-9-|----|---------------5----|-------------------------|---------------5-|
E|-----------5---5-5---7---7-7-|----|--------------------|-------------------------|-----------------|


[Post-Chorus]
                                                    Tremolo Picking
e|-------------------------------------------------|---------------|-14-15-17b(slight-bend)-|
B|-7-8-10---------7-8-10--8h10p8\-----7-8-10-------|-7-8-10-15-17--|------------------------|
G|--------9-6--------------------------------9-6---|---------------|------------------------|
D|------------7--------------------7-------------7-|---------------|------------------------|
A|-------------------------------------------------|---------------|------------------------|
E|-------------------------------------------------|---------------|------------------------|


[Outro] Chord Progression is D5 A5 G5 A5                             PH (Pick   PH (Pick  PH (Pick 
                                                         PH (Pick    above neck above 22  above 22
                                                         b\t pickups   pickup)    fret)     fret)
e|------------------------------------------------------|-----------|----------|---------|----------|
B|-8-----------8---------8-----------8------------------|-----------|----------|---------|----------|
G|---7-------7---7---------7-------7---7------7b9r7b9r7-|---7b9r7---|--7b9r7---|--7b9r7--|--7b10r9--|
D|-----10----------10--------10----------10-------------|-----------|----------|---------|----------|
A|------------------------------------------------------|-----------|----------|---------|----------|
E|------------------------------------------------------|-----------|----------|---------|----------|


************************************

| PH Pinch Harmonic
| /  Slide up
| \  Slide down
| h  Hammer on
| p  Pull off
| b  Bend
| r  Release bend
| <  Crescendo 
| DB Dive bomb
| WU Whammy up
| WD Whammy down
| P.M. Palm mute

************************************

            
            
Suggest correction
Creating personal tab
Creating personal tab
You can edit any tab online and save it as your Personal.

You can edit, replace or remove any tab part or add personal notes – all changes will be seen only by you.

Personal tabs can be accessed anytime from any device, even offline.
Learn more »
Give kudos to tab author, rate the tab!
1 2 3 4 5
comments
print report bad tab
guest
You may want to rate the tab now too:
select rating
Wanna post a correction for this tab? Suggest correction