Oops, an error
Loading. Please wait.
We have Chord Pro version of You Really Got Me.
It's the closest thing you can get to the original song and it has interactive parts. Check out the tab »
×
11,868 views 1 this week
1 commentread comment
1 2 3 4 5
x 10
add to favorites
×
Save as Personal and add changes to this tab that will be seen only by you. Learn more ›
×
You can save this tab as Personal to edit and correct it or add notes. All changes will be seen only by you. Learn more »
launch autoscroll
font size
0
reset
guitar tuner
backing track
0:00
0:00
edit
Autoscroll
slow
fast
+/-
esc
set tempo
stop
'You Really Got Me'
As played by Van Halen

Intro
=-R-------------------------=
=-E-------------------------=
=-S-------------------------=
=-T-7/--4-4-2-4---2-4-4-2-4-=
                  \  x3   /
      let last 4 ring last time through

Verses
=-----------------------------------------= \
=---------------------------4-2---2-------=  \ x2
=-------------------------------4---4-2-2-=  /
=-4-4-2-4---2-4-4-2-4---2-4---------------= /
            \  x2   /

=-------------------------------------------------=
=-------------------------------------------------=
=-----------------------6-6-4-6/---4-6-6-4-6---4~-=
=-6-6-4-6---4-6-6-4-6-----------------------------=
            \  x3   /              \  x5   /

Solo
=---------------------------------------------= \
=----------------------------4-2---2----------=  \ x3
=--------------------------------4---4-2-2----=  /
=-4-4-2-4---2-4-4-2-4---2-4----------------4/-= /
            \  x2   /        last time only^

End
=-----------------------------------------------------------=
=-----------------------------------------------------------=
=-----------------------6-6-4-6/---4-6-6-4-6---6-6-6-6---6/-=
=-6-6-4-6---4-6-6-4-6---------------------------------------=
            \  x3   /              \  x5   /

            
            
Suggest correction
Creating personal tab
Creating personal tab
You can edit any tab online and save it as your Personal.

You can edit, replace or remove any tab part or add personal notes – all changes will be seen only by you.

Personal tabs can be accessed anytime from any device, even offline.
Learn more »
comments
print report bad tab
1 comment total.
0 reply
BigRog 10 Jan 16, 2007 08:28 AM

way off the begginging is like this

-------------------------------
-------------------------------
-------------------------------
-10\3---5-5-3-5------3-5-5-3-5-

guest
Wanna post a correction for this tab? Suggest correction