Oops, an error
Loading. Please wait.

Baby Please Dont Go Tab

73,235 views 243 this week
5 commentsread comments
1 2 3 4 5
accurate
x 20
add to favorites
launch autoscroll
font size
0
reset
how to read this tab
guitar tuner
Tab Pro tools
  • play this tab
  • loop segment
  • change instrument
  • show fretboard
  • metronome
×
Best way to learn
"Baby Please Dont Go"
Autoscroll
slow
fast
+/-
esc
set tempo
stop
Contributor
Capo
1st fret
Capo on 1st fret

()=Ghost Note
h=Hammer On
p=Pull Off
^^^=Vibrato
/=Slide Up
\=Slide Down
^=Bend
P.M.=Palm Mute 
T=Trill

Intro-

e|-------3p0-----0--  -----3p0--------|
b|-0-3p0-----3p0(0)-  -0-3-----3------|
G|------------------  -----------3^^^-|
D|------------------  ----------------|
A|------------------  ----------------|
E|------------------  ----------------|

e|-----3p0---0---------0----------------------------|
b|-0-3-----3(0)3p0----(0)---------------------------|
G|-----------------2/4---4\2-0---0-2p0--------------|
D|-----------------------------2-------2-2-2--------|
A|-------------------------------------------2------|
E|---------------------------------------------3^-0-|

Verse-

e|--------------| x5 |----------------0---------------|
b|--------------|    |-2^------------(0)--------------|
G|--------------|    |-2^---------2/4---4\2-0---------|
D|-----0--------|    |----2-2-2-2-------------2p0-2-2-|
A|-0h2----0-----|    |----2-2-2-2---------------------|
E|----------3^0-|    |--------------------------------|

Chorus-

e|----- ------|
b|------ -2/3-|
G|-6/7-- -3/4-|
D|-5/6-- -----|
A|-6/7-- -----|
E|-0---- -----|

Verse-

e|-------3-0--12\-0-| x2 |------------0------------|
b|------(3)0--12\-0-|    |-2^------- (0)-----------|
G|------------------|    |-2^-----2/4---4\2-0------|
D|------------------|    |----2-2------------2p0-2-|
A|------------------|    |----2-2------------------|
E|-12\-0------------|    |-------------------------|

Chorus-

e|----- ------|
b|------ -2/3-|
G|-6/7-- -3/4-|
D|-5/6-- -----|
A|-6/7-- -----|
E|-0---- -----|   

Verse-

e|-------3-0--12\-0-| x2 |------------------0---------------|
b|------(3)0--12\-0-|    |-2^--------------(0)--------------|
G|------------------|    |-2^-0-2p0-----2/4---4\2-0---------|
D|------------------|    |----0-2p0-2-2-------------2p0-2-2-|
A|------------------|    |----------2-2---------------------|
E|-12\-0------------|    |----------------------------------|

Chorus-

e|----- ------|
b|------ -2/3-|
G|-6/7-- -3/4-|
D|-5/6-- -----|
A|-6/7-- -----|
E|-0---- -----|

Verse-

e|-------3-0--12\-0-| x2
b|------(3)0--12\-0-|
G|------------------|
D|------------------|
A|------------------|
E|-12\-0------------|

interlude-

e|-0--0--0--0--  -----3p0----------|
b|(0}(0)(0)(0)-  -0-3-----3p0------|
G|-------------  -------------3^^^-|
D|-------------  ------------------|
A|-------------  ------------------|
E|-------------  ------------------|

e|-------3p0---0---------0------------------------------|
b|-0-3p0-----3(0)3p0----(0)-----------------------------|
G|-------------------2/4---4\2-0---0-2p0----------------|
D|-------------------------------2-------2-2-2p0--------|
A|-----------------------------------------------2------|
E|-------------------------------------------------3^-0-|

Bridge-

P.M.
e|-----------------------------|
b|-----------------------------|
G|-----------------------------|
D|---0-----------0-----------0-|
A|-0---0-------0---0-------0---|
E|-------3^-0--------3^-0------|

e|------------3---0-----0---------------------12\-12\--------|
b|--------0-3---3(0)---(0)--------------------12\-12\--3T4T5-|
G|-3^^^-------------2/4---4\2-0---0-2p0-2p0------------------|
D|------------------------------2-----------2----------------|
A|-----------------------------------------------------------|
E|-----------------------------------------------------------|

e|-----3p0---0-------0----------------------------12\-|
b|-0-3-----3(0)-----(0)---------------------------12\-|
G|---------------2/4---4\2-0---0-2p0------------------|
D|---------------------------2-------2-2-2------------|
A|-----------------------------------------2----------|
E|-------------------------------------------3^-0-----|

Verse-

P.M.
e|------------| x3 |--------------| x5 |-------------0---------------|
b|------------|    |--------------|    |-2^---------(0)--------------|
G|------------|    |--------------|    |-2^------2/4---4\2-0---------|
D|---0--------|    |-----0-0------|    |----2^-2-------------2p0-2-2-|
A|-0---0------|    |-0h2---0------|    |-------2-------------------2-|
E|-------3^-0-|    |---------3^-0-|    |-----------------------------|

Chorus-

e|----- ------|
b|------ -2/3-|
G|-6/7-- -3/4-|
D|-5/6-- -----|
A|-6/7-- -----|
E|-0---- -----|

Verse-

e|-------3-0--12\-0-| x2 |---(0)------------0---------------|
b|------(3)0--12\-0-|    |-2^-0------------(0)--------------|
G|------------------|    |-2^-0-2p0-----2/4---4\2-0---------|
D|------------------|    |------2p0-2-2-------------2p0-2-2-|
A|------------------|    |----------2-2---------------------|
E|-12\-0------------|    |----------------------------------|

Chorus-

e|----- ------|
b|------ -2/3-|
G|-6/7-- -3/4-|
D|-5/6-- -----|
A|-6/7-- -----|
E|-0---- -----|

Verse-

e|-------3-0--12\-0-| x2
b|------(3)0--12\-0-|
G|------------------|
D|------------------|
A|------------------|
E|-12\-0------------|

end-

e|-0--0--0--0--  -----3p0----------|
b|(0}(0)(0)(0)-  -0-3-----3p0------|
G|-------------  -------------3^^^-|
D|-------------  ------------------|
A|-------------  ------------------|
E|-------------  ------------------|
E|-------------  ------------------|

e|-----3p0---0---------0------------------------------|
b|-0-3-----3(0)3p0----(0)-----------------------------|
G|-----------------2/4---4\2-0---0-2p0----------------|
D|-----------------------------2-------2-2-2p0--------|
A|---------------------------------------------2------|
E|-----------------------------------------------3^-0-|

comments
print report bad tab
5 comments total. Showing first comments.
0 reply
Justabitcrazy wrote on June 26 2010, 10:18 pm

Close but it's one semitone up. For example play the start like this:
e|------4----------- -------4----------|
b|---4----6-4---4h6- ---4-----6-4------|
G|-5---5------5----- -5---5-------5-4--|
D|------------------ ------------------|
A|------------------ ------------------|
E|------------------ ------------------|

0 reply
Dairybeat wrote on November 26 2010, 09:15 am

This song was released in 1964 by 'Them', fronted by Van Morrison, as the Single B-side of 'Gloria'.
It was written and recorded in 1935 by Big Joe Williams.
So my 'argument' is that this listing under Van Morrison, should be deleted!

0 reply
BentheDrummer wrote on January 14 2014, 03:07 pm

I think a lot of people would have a harder time finding it.

I want to post or [tab]
guest
You may want to rate the tab now too:
select rating
Please do not post tabs as comments. Select "correction" instead!