Oops, an error
Loading. Please wait.

Brown Eyed Girl Bass Tab

version 1
version 1

Interactive

120,931 views 159 this week
3 commentsread comments
1 2 3 4 5
x 14
add to favorites
launch autoscroll
font size
0
reset
guitar tuner
Autoscroll
slow
fast
+/-
esc
set tempo
stop
Help us to improve Ultimate-Guitar.com Take our survey!
×
              fig. 1                                                    
G|---------|----------------------------------------------------------------|
D|---------|*-----------------2-2--4-4--5----------------------------------*|
A|---------|*-----2--3-----3--------------------2--4-----5-----------------*|
E|-0--2--3-|---3----------------------------------------------0----1----2---|(x5)


G|---------------------------------------------------------------------------|
D|---------------------------2-2-4-4--5--------------------------------------|
A|-------------2--2--3----3-------------------2-4-4--5-----5-----0--2--3-----|
E|--3-------3----------------------------------------------------------------|


G|---------------------------------------------------------------------------|
D|------------------------4---5--------------2-----2-------------------------|
A|--0--3--4--5----5----X--------------2---5-------------0--2--3----3---0--4--|
E|---------------------------------3-----------------------------------------|

                                                       % Sign

G|-----------------------------------------------------|-------------|
D|------------5-------------------------------3-----4--|-fig-1--x3---|
A|5---5---/7-----7------2----3--0--5----5--5-----5-----|-------------|
E|------------------3----------------------------------|-------------|


G|---------------------------------------------------------------------------|
D|-------------------------2---4---5-----------------------------------------|
A|------------2---3----3----------------2--4---5---5---0--2--3-----3--0--3--4|
E|--3------3-----------------------------------------------------------------|



G|---------------------------------------------------------------------------|
D|---------------------------5--2--------2-----------2-----------------------|
A|--5---5--5---------2---5------------2-----0--2--3-----0--4--5--------------|
E|------------0--3-------------------------------------------------2----5---2|


                                                            go to coda *0*
                                                            last time

G|---------------------------------------------------7--------7-----7------|-|
D|---------------------------------7-------------7------7------------------|-|
A|-----2----3--3--4--5---5--5---5------r------5------------5---------------|-|
E|--3------------------------------------------------------------------0--2/3|


G|---------------------------------------------------------------------------|
D|--------------------------------------------------------2--2--3--3--4--4--5|
A|------------0--2--3-----------------------2----3--4--5---------------------|
E|---3-----3-----------0---1----2----3---3-----------------------------------|



G|---------------------------------------------------------------------------|
D|----5---------------------2-----4--5--------------------------------------5|
A|--------2---5---3--3---3-----3--------2----3----4---5--5---5--5--5----5----|
E|---------------------------------------------------------------------------|



G|---------------------------------------------------------------------------|
D|---5--5---5--5---5--5---5--5---5--5---5--5---5--5--------------------------|
A|---------------------------------------------------7--5-\--------------2--3|
E|----------------------------------------------------------3---------3------|

                              DS % al Coda *0*

G|----------------------------------------------|
D|-----2--4--5----r---------------------5-------|
A|--3--------------------2---5----5-/7-----7----|
E|--------------------3-------------------------|

    CODA *0*                                           repeat and
                                                       fade...
G|------------------------------------------------------------------|
D|-----------------------2--3--4--5--------------------------------*|
A|-------------2---3--3--------------2----3--4--5-----------0------*|
E|---3---3---3--------------------------------------0--2--------2---|

************************************

| x  Dead note
| r  Release
| /  Slide up
| \  Slide down

************************************
Suggest correction
comments
print report bad tab
3 comments total.
0 reply
dooda 87 Dec 20, 2005 03:27 PM

it's alrite but it just sounds wrong i dont no wats wrong wit it

0 reply
BreAkdOwn396 83 Jul 09, 2007 11:12 PM

good

0 reply
djostreet 10 May 04, 2008 01:26 PM

hes got the notes right, just not in the right rhythm

guest
You may want to rate the tab now too:
select rating
Wanna post a correction for this tab? Suggest correction