Oops, an error
Loading. Please wait.

Brown Eyed Girl Tab

version 1
version 1

Intro

Interactive

118,973 views 60 this week
12 commentsread comments
1 2 3 4 5
x 45
add to favorites
launch autoscroll
font size
0
reset
how to read this tab
guitar tuner
×
Best way to learn
"Brown Eyed Girl"
Autoscroll
slow
fast
+/-
esc
set tempo
stop
Author
Tuning
  follow
E A D G B E
About this tab version
Tab has been removed by the person creating the tab because I felt that it was not correct at all. Was this info helpful? Yes No
[Intro]
e|----3-5-7-5-3--10-12-14-12-10---3-5-7-5-3-2--2-3-5----|
B|------------------------------------------------------|
G|------------------------------------------------------|
D|------------------------------------------------------|
A|------------------------------------------------------|
E|------------------------------------------------------| 2X's 

This is the way I learned the song but I'm not quite sure if it is the correct way
but it sure sounds like it so give it a try.

-------

Hi, i think this is the correct.

E|-3----5---7---5---3-----------|-8----10--12--10--8--------|-3----5---7---5---3--------|
B|------------------------------|---------------------------|---------------------------|
G|------------------------------|---------------------------|---------------------------|
D|------------------------------|---------------------------|---------------------------|
A|------------------------------|---------------------------|---------------------------|
E|------------------------------|---------------------------|---------------------------|


E|-5---2---3---5----------------|
B|------------------------------|
G|------------------------------|
D|------------------------------|
A|------------------------------|
E|------------------------------|
Suggest correction
comments
print report bad tab
12 comments total. Showing first comments.
0 reply
popshuvit3 10 Jul 05, 2004 08:00 PM

its a little off. i tried a few things and this is as close as i could get

e 3-5-7-5-3-8-10-12-10-8--------| e 3-5-7-5-3---2-3-5-3
B ------------------------------| B ----------3--------
G ------------------------------| G -------------------
D ------------------------------| D -------------------
A ------------------------------| A -------------------
E ------------------------------| E -------------------


if i got that wrong, email me at popshuvit3@sbcglobal.net

0 reply
popshuvit3 10 Jul 05, 2004 08:00 PM

oooops messed up there. heh. in the secnd part, forget that, it should be like this

e 3-5-7-5-3-Open-2-3-5-3
B ----------------------
G ----------------------
D ----------------------
A ----------------------
E ----------------------

0 reply
aron444 708 Jun 06, 2005 08:00 PM

People. The intro has two string chords, not single notes. Check out my tab and there are a few others that have it as well.

guest
You may want to rate the tab now too:
select rating
Wanna post a correction for this tab? Suggest correction