Oops, an error
Loading. Please wait.

Brown Eyed Girl Tab

version 2
version 2

Intro

Interactive

69,867 views 30 this week
6 commentsread comments
1 2 3 4 5
x 27
add to favorites
launch autoscroll
font size
0
reset
how to read this tab
guitar tuner
backing track
0:00
0:00
×
Best way to learn
"Brown Eyed Girl"
Autoscroll
slow
fast
+/-
esc
set tempo
stop
Author
[Intro]
e|-7---8-----10-----8- - -7-------12--13--15----13----12----7--8----10---8-----|
B|-8---10----12-----10---8-------13--15--17----15----13----8--10---12---10-----|
G|-----------------------------------------------------------------------------|
D|-----------------------------------------------------------------------------|
A|-----------------------------------------------------------------------------|
E|-----------------------------------------------------------------------------|

e|---7--|
B|---8--|
G|------|
D|------|
A|------|
E|------|
Suggest correction
comments
print report bad tab
6 comments total. Showing first comments.
-2 reply
aron444 708 May 10, 2005 08:00 PM

I can't believe that tabs like this can get excepted. One thing I hate about this site is the tab screening. I will submit a tab that is complete and correct with no other tab like it and it will not be accepted. Then I see something like the first two tabs to this song. I could appreciate it if the screenings were consistant but when I see this going on, I know they're not.

-2 reply
The_Beginner 440 Oct 29, 2006 05:54 AM

i don't thinl this sounds right. this souns better:

e|-3-5-7-5-3-8-10-12-10-8-----|
B|----------------------------|
G|----------------------------|
D|----------------------------|
A|----------------------------|
E|----------------------------|

e|-3-5-7-5-3-2-3-5------------|
B|----------------------------|
G|----------------------------|
D|----------------------------|
A|----------------------------|
E|----------------------------|

0 reply
§tratocaster 1,578 Aug 10, 2008 11:50 AM

wtf are you guys talking about. this one is perfectly fine! if you cant figure out the other three notes, you have no business playing guitar or music.

guest
You may want to rate the tab now too:
select rating
Wanna post a correction for this tab? Suggest correction