Oops, an error
Loading. Please wait.

Brown Eyed Girl Bass Tab

version 2
version 2

Interactive

12,339 views 9 this week
no commentswrite comment
1 2 3 4 5
x 5
add to favorites
launch autoscroll
font size
0
reset
guitar tuner
Autoscroll
slow
fast
+/-
esc
set tempo
stop
Help us to improve Ultimate-Guitar.com Take our survey!
×
Author
Difficulty
novice
Van Morrison - Brown Eyed Girl

Intro:
G|-------||-------------------------------------------||
D|-------||--------------2-2-4-4-5--------------------||
A|-------||---2--3-----3---------------2-4--5---------||
E|-0-2-3-||-3-----------------------------------0-1-2-|| x2

Verse:
G|-------------------------------------------------|
D|-------------------2-2-4-4-5---------------------|
A|-------2---3-----3---------------2-4---5---------|
E|-3---3-------------------------------------0-1-2-| x3

G|-------------------------------------------------|
D|-------------------2-2-4-4-5---------------------|
A|-------2-2-3-----3---------------2-4-4-5---0-2-3-|
E|-3---3-------------------------------------------|

G|-------------------------------------------------|
D|-------------------4---5---------------2---------|
A|-0---3-4-5-------5-----------------2-5-----0-2-3-|
E|---------------------------------3---------------|

G|-------------------------------------------------|
D|-------------------5-----------------------------|
A|-3---0-4-5------/7---7---------3-0-5---5-5-3-----|
E|-----------------------3---------------------0-2-|

Bridge:
G|---------------------------------|
D|---------------------------------|
A|-5-5-5-5-5-5-5-5-5-5-5-5-5-5-5-5-|
E|---------------------------------|

Chorus:
G|-------------------------------------------------|
D|-------------------2-2-4-4-5---------------------|
A|-------2---3-----3---------------2-4---5---------|
E|-3---3-------------------------------------0-1-2-| x2
Suggest correction
comments
print report bad tab
guest
You may want to rate the tab now too:
select rating
Wanna post a correction for this tab? Suggest correction