Oops, an error
Loading. Please wait.

Brown Eyed Girl Tab

version 7
version 7
7,116 views 15 this week
no commentswrite comment
1 2 3 4 5
1 last vote to show rating
add to favorites
launch autoscroll
font size
0
reset
how to read this tab
guitar tuner
×
Best way to learn
"Brown Eyed Girl"
Autoscroll
slow
fast
+/-
esc
set tempo
stop
Author
Difficulty
G-Key

E|--------------------------------|-------------0------------------|
B|-------------0------------------|-1---3---------------3-1--------|
G|-0---2-------------2-----0------|-0------------------------------|
D|--------------------------------|-2------------------------------|
A|--------------------------------|-3------------------------------|
E|-3------------------------------|--------------------------------|

E|--------------------------------|--------------------------------|
B|-------------0------------------|--------------------------------|
G|-0---2---------------2---0------|---------------------0---2------|
D|--------------------------------|-0-----------4------------------|
A|--------------------------------|-5------------------------------|
E|-3------------------------------|--------------------------------|

E|--------------------------------|-------------0------------------|
B|-------------0------------------|-1---3---------------3-1--------|
G|-0---2-------------2-----0------|-0------------------------------|
D|--------------------------------|-2------------------------------|
A|--------------------------------|-3------------------------------|
E|-3------------------------------|--------------------------------|

E|--------------------------------|--------------------------------|
B|-------------0------------------|--------------------------------|
G|-0---2---------------2---0------|---------------------0---2------|
D|--------------------------------|-0-----------4------------------|
A|--------------------------------|-5------------------------------|
E|-3------------------------------|--------------------------------|

E|--------------------------------|--------------------------------|
B|-------------0---3---1---0---1--|-3-----------3------------------|
G|---------0-------0---0---0---0--|---------0---------------0------|
D|-----0-----------0---0---0---2--|-2---2---------------2-------2--|
A|--------------------------------|-3---------------3--------------|
E|-3---------------3--------------|--------------------------------|

E|--------------------------------|--------------------------------|
B|-------------0---0--------------|-----0--------------------------|
G|---------0-----------2---0---2--|---------------------2-------2--|
D|-----0--------------------------|-------------4-----------4------|
A|--------------------------------|-5---------------5--------------|
E|-3---------------3--------------|--------------------------------|

E|--------------------------------|--------------------------------|
B|-------------3---3---3---3---3--|-----1-3------------------------|
G|---------0-------0---0---0---0--|-----0-------------------0------|
D|-----0-----------0---0---0---2--|-----2-------2-------2-------2--|
A|--------------------------------|-3---------------3--------------|
E|-3---------------3--------------|--------------------------------|

E|--------------------------------|--------------------------------|
B|-------------0---0--------------|-----0--------------------------|
G|---------0-----------2---0---2--|---------------------2-------2--|
D|-----0--------------------------|-------------4-----------4------|
A|--------------------------------|-5---------------5--------------|
E|-3---------------3--------------|--------------------------------|

E|--------------------------------|--------------------------------|
B|---------3---3-------3---3---3--|-3---1-------1-3-----3----------|
G|---------0---0-------0---0---0--|-0---0-------0-------0----------|
D|-----0-------0-------0---0---0--|-2---2-------2-------2-------2--|
A|--------------------------------|-3---------------3--------------|
E|-3---------------3--------------|--------------------------------|

E|--------------------------------|--------------------------------|
B|-------------0-------0----------|--------------------------------|
G|-------0---------------2---0----|-2---2-------------------2------|
D|-----0--------------------------|-4-----------4-------4-------4--|
A|--------------------------------|-5---------------5--------------|
E|-3---------------3--------------|--------------------------------|

E|--------------------------------|--------------------------------|
B|-------------3-------3---3---3--|-3---1-------3-------3----------|
G|---0-----0-----------0---0---0--|-------------0---------------0--|
D|-----0---------------0---0---0--|-2---2-------2-----------2------|
A|--------------------------------|-3---------------3--------------|
E|-3---------------3--------------|--------------------------------|

E|--------------------------------|--------------------------------|
B|---------0---------------0------|-------------0-----0------------|
G|---------------------------0----|-2-----2---------------2-----0--|
D|-----0-------------0------------|-4------------------------------|
A|--------------------------------|-5---------------5--------------|
E|-3---------------3--------------|--------------------------------|

E|--------------------------------|--------------------------------|
B|---------------------1----------|-------------0-------0----------|
G|-------------0---------------0--|-------------------------2---0--|
D|---------2---------------2------|---------4----------------------|
A|-3---------------3--------------|-5---------------5--------------|
E|--------------------------------|--------------------------------|

E|--------------------------------|--------------------------------|
B|--------------------------------|-------------0------------------|
G|-------2-------0----------------|-------0---------------0--------|
D|-----0-------0-----4-------2----|-----2---------------2-------2--|
A|--------------------------------|--------------------------------|
E|-3-------------3----------------|-0---------------0--------------|

E|---------3-----------0----------|--------------------------------|
B|-------------------------3------|-------------0-------0----------|
G|--------------------------------|-------------------------2---0--|
D|-----2-------2------------------|-----4--------------------------|
A|-3---------------3--------------|-5---------------5--------------|
E|--------------------------------|--------------------------------|

E|--------------------------------|--------------------------------|
B|-------------0---------------0--|-------------------------0---1--|
G|---------0---------------0------|---------2-------2--------------|
D|-----0---------------0----------|-----4-------4------------------|
A|--------------------------------|-5---------------5--------------|
E|-3-------------3----------------|--------------------------------|

E|--------------------------------|--------------------------------|
B|-----0---3-------------------3--|-----------3-------0------------|
G|-------------------------0------|---------0-----5-------2-----0--|
D|---------------------4----------|-----4--------------------------|
A|-5---------------5--------------|-5-------------5----------------|
E|--------------------------------|--------------------------------|

E|--------------------------------|--------------------------------|
B|---------3---3-------3-------3--|-----1-------1-3-----1-------0--|
G|-------------------------0------|-----0-------0-------0----------|
D|-----0--------------------------|-----2-------2-------2----------|
A|--------------------------------|-3------------------------------|
E|-3---------------3--------------|--------------------------------|
 
E|--------------------------------|--------------------------------|
B|-----0-----------0--------------|-------------3------------------|
G|-------------0-----2-----0---2--|---------2---------------2------|
D|---------0----------------------|-----4-------------4---------4--|
A|--------------------------------|-5-------------5----------------|
E|-3---------------3--------------|--------------------------------|

E|--------------------------------|--------------------------------|
B|---------3---3-------3-------3--|-----1-------1-3-----1-------0--|
G|---------0---0------------------|-----0-------0-------0----------|
D|-----0-----------------------0--|-----2-------2-------2----------|
A|--------------------------------|-3------------------------------|
E|-3---------------3--------------|--------------------------------|

E|--------------------------------|--------------------------------|
B|-----0-----------0--------------|-------------0------------------|
G|-------------0-----2-----0---2--|---------2-----------2-------0--|
D|---------0----------------------|-----4--------------------------|
A|--------------------------------|-5---------------5--------------|
E|-3---------------3--------------|--------------------------------|

E|--------------------------------|-------------0------------------|
B|-------------0------------------|-1---3---------------3-1--------|
G|-----2---------------2---0------|-0------------------------------|
D|--------------------------------|-2------------------------------|
A|--------------------------------|-3------------------------------|
E|-3------------------------------|--------------------------------|

E|--------------------------------|--------------------------------|
B|-------------0------------------|--------------------------------|
G|-0---2---------------2---0------|---------------------0---2------|
D|--------------------------------|-0-----------4------------------|
A|--------------------------------|-5------------------------------|
E|-3------------------------------|--------------------------------|

E|--------------------------------|-------------0------------------|
B|-------------0------------------|-1---3---------------3-1--------|
G|-0---2-------------2-----0------|-0------------------------------|
D|--------------------------------|-2------------------------------|
A|--------------------------------|-3------------------------------|
E|-3------------------------------|--------------------------------|

E|--------------------------------|--------------------------------|
B|-------------0------------------|--------------------------------|
G|-0---2---------------2---0------|---------------------0---2------|
D|--------------------------------|-0-----------4------------------|
A|--------------------------------|-5------------------------------|
E|-3------------------------------|--------------------------------|

E|--------------------------------|--------------------------------|
B|--------------------------------|--------------------------------|
G|-0---------------0--------------|--------------------------------|
D|-0---------------0--------------|--------------------------------|
A|--------------------------------|--------------------------------|
E|-3---------------3--------------|--------------------------------|

E|--------------------------------|--------------------------------|
B|--------------------------------|--------------------------------|
G|--------------------------------|--------------------------------|
D|--------------------------------|--------------------------------|
A|--------------------------------|--------------------------------|
E|--------------------------------|--------------------------------|
Suggest correction
Give kudos to tab author, rate the tab!
1 2 3 4 5
comments
print report bad tab
guest
You may want to rate the tab now too:
select rating
Wanna post a correction for this tab? Suggest correction