Oops, an error
Loading. Please wait.

Cul De Sac bass

82 views 3 this week
no commentswrite comment
1 2 3 4 5
3 more votes to show rating
add to favorites
×
Save as Personal and add changes to this tab that will be seen only by you. Learn more ›
×
You can save this tab as Personal to edit and correct it or add notes. All changes will be seen only by you. Learn more »
launch autoscroll
font size
0
reset
guitar tuner
edit
Autoscroll
slow
fast
+/-
esc
set tempo
stop
Author
Difficulty
[intro]

G|-----|-------|-------|-------|-------|-------|--2-3--|--------------|
D|--8--|--8-7--|--7-5--|--5-3--|--3-1--|--2-3--|-------|-----------7--|
A|-----|-------|-------|-------|-------|-------|-------|--8---10------|
E|-----|-------|-------|-------|-------|-------|-------|--------------|


[verse 1]

G|-----|-------|-------|-------------|
D|--8--|--8-7--|--7-5--|--5---5---7--|
A|-----|-------|-------|-------------|
E|-----|-------|-------|-------------|


G|-----|-------|-------|-------|----------------------|-------|----------|---------------|
D|--8--|--8-7--|--7-5--|--5-3--|--3--3----------------|-------|--5-------|--------5---7--|
A|-----|-------|-------|-------|-------1---3---5---6--|----6--|-----7-8--|----8----------|
E|-----|-------|-------|-------|----------------------|--6----|----------|--8------------|


G|-----|----------------|---------------|
D|--8--|--8------7---5--|----5---5---7--|
A|-----|----------------|--5------------|
E|-----|----------------|---------------|


[verse 2]

G|-----|-------|-------|---------------|
D|--8--|--8-7--|--7-5--|----5---5---7--|
A|-----|-------|-------|--5------------|
E|-----|-------|-------|---------------|


G|-----|-------|-------|-------|----------------------|-------|------------|---------------|
D|--8--|--8-7--|--7-5--|--5-3--|--3--3----------------|-------|--8---------|--------5---7--|
A|-----|-------|-------|-------|-------1---3---5---6--|----6--|----6--7-8--|----8----------|
E|-----|-------|-------|-------|----------------------|--6----|------------|--8------------|


G|-----|-------------------|---------------|
D|--8--|----8---8---7---5--|----5---5---3--|
A|-----|--8----------------|--5------------|
E|-----|-------------------|---------------|


[verse 3]

G|-----|-------------------|--------------------|-------------------|------------------|
D|-----|---------5-8-------|------------5-------|-----------7-------|------------------|
A|--6--|----6---------5-3--|----3---6------6-5--|----5----8----8-5--|----5--5---8---5--|
E|-----|--6----------------|--3-----------------|--5----------------|--5---------------|


G|-----|----------------|-----|-------------------|-----|----------------------------------------|
D|-----|----------------|-----|----------------5--|-----|---------------------------------5---7--|
A|--6--|----6------6-5--|--3--|----3------3-6-----|--5--|----5------5--2-3---5---6--7-8----------|
E|-----|--6-------------|-----|--3----------------|-----|--5-------------------------------------|


[verse 4]

G|-----|-------|-------|---------------|
D|--8--|--8-7--|--7-5--|----5---5---7--|
A|-----|-------|-------|--5------------|
E|-----|-------|-------|---------------|


G|-----|-------|-------|--------------------------------|-------|------------|---------------|
D|--8--|--8-7--|--7-5--|--5-3---3---3--3----------------|-------|--5---------|--------5---7--|
A|-----|-------|-------|-----------------1---3---5---6--|----6--|----6--7-8--|----8----------|
E|-----|-------|-------|--------------------------------|--6----|------------|--8------------|


G|-----|-----------------|---------------|
D|--8--|--8---8---7---5--|----5---5---7--|
A|-----|-----------------|--5------------|
E|-----|-----------------|---------------|


[instrumental]

G|-----|-------|-----------|---------------|
D|--8--|--8-7--|----7-6-5--|----5---5---7--|
A|-----|-------|--8--------|--5------------|
E|-----|-------|-----------|---------------|


G|-----|---------|---------|--------------------------------|----------------------|---------------|
D|--8--|----8-7--|----7-5--|--5-3---3---3--3----------------|-------5-8-----5------|--------5---7--|
A|-----|--8------|--8------|-----------------1---3---5---6--|----6--------6---7-8--|----8----------|
E|-----|---------|---------|--------------------------------|--6-------------------|--8------------|


G|-----|-------------------|---------------|
D|--8--|----8---8---7---5--|----5---5---3--|
A|-----|--8----------------|--5------------|
E|-----|-------------------|---------------|


[verse 5]

G|-----|----------------|-----|-------------------|-------|-------|----------------|
D|-----|--------5-------|-----|------------5------|-------|-------|---------7------|
A|--6--|----6------6-5--|--3--|----3---6-------5--|----5--|----5--|----5--8-----5--|
E|-----|--6-------------|-----|--3----------------|--5----|--5----|--5-------------|


G|-----|----------------|-----|--------------------|----------------------------------------------|
D|-----|----------------|-----|------------5-------|------5-7------------------------------5---7--|
A|--6--|----6------6-5--|--3--|----3---6------6-5--|--x-8-----8-5-8---5--2-3---5---6---8----------|
E|-----|--6-------------|-----|--3-----------------|----------------------------------------------|


[verse 6]

G|-----|-------|-------|---------------|
D|--8--|--8-7--|--7-5--|--x-5---5---7--|
A|-----|-------|-------|---------------|
E|-----|-------|-------|---------------|


G|-----|-------|-------|-----------------------------------|---------------------|---------------|
D|--8--|--8-7--|--7-5--|--5--2-3---3---3-------------------|-------5-8-----------|--------5---7--|
A|-----|-------|-------|------------------1-1---3---5---6--|----6--------6--7-8--|----8----------|
E|-----|-------|-------|-----------------------------------|--6------------------|--8------------|


G|-----|------------------|--------------------------------|---------------------|---------------|
D|--8--|----8------7---5--|--5-3---3---3--3----------------|----------5-8--------|--------5---7--|
A|-----|--8---------------|-----------------1---3---5---6--|----6---------6-7-8--|----8----------|
E|-----|------------------|--------------------------------|--6------------------|--8------------|


G|-----|-------------------|-------|----------------------|--------------------|---------------|
D|--8--|----8---8---7---5--|--5-3--|--3-------------------|----------5---------|------------7--|
A|-----|--8----------------|-------|-----1-1---3---5---6--|----6-------6--7-8--|----8---8------|
E|-----|-------------------|-------|----------------------|--6-----------------|--8------------|


G|-----|--------------------|---------------------------------|--------------------|---------------|
D|--8--|--8-8---8---8----5--|----x---3---3--3-----------------|----------5---------|--------5---7--|
A|-----|---------------8----|--5---------------1---3---5---6--|----6-------6--7-8--|----8----------|
E|-----|--------------------|---------------------------------|--6-----------------|--8------------|


G|-----|-----------------------|-------|----------------------|--------------------------|---------------|
D|--8--|--8-8--8-8---7---5--5--|----5--|--3--3----------------|--5-7-8---------5---------|--------5---7--|
A|-----|-----------------------|--5----|-------1---3---5---6--|--------6----6----6--7-8--|----8----------|
E|-----|-----------------------|-------|----------------------|-----------6--------------|--8------------|


G|----------------------|-------|----------|----------------------|-------------------------|
D|--8-------8------8-8--|--7-5--|----------|--3-------------------|--------5--8---5---------|
A|----------------------|-------|--5--3-5--|-----1-1---3---5---6--|----5-6------6---6--7-8--|
E|------6------6-6------|-------|----------|----------------------|--6----------------------|


G|-------------------|
D|------------5---7--|
A|----5-7-8----------|
E|--8----------------|


G|-----------------------|-------|-------|-----------------------|----------------------|
D|--8-------8----8--8-8--|--7-5--|----3--|--3---0----------------|--5-8--------8--------|
A|-----------------------|-------|--5----|----1---1---3---5---6--|------6--------6-7-8--|
E|------6------6---------|-------|-------|-----------------------|----------------------|


G|------------------------|
D|---------------------7--|
A|-------8-8--8---10------|
E|--8-10------------------|


G|-----|-----------------|-------|----------------------|--------------------------|-------------------|
D|--8--|--8---8---7---5--|----3--|--3-------------------|--5-7-8----8----8---------|----------------7--|
A|-----|-----------------|--5----|-----1-1---3---5---6--|--------6----6----6--7-8--|-----7-8---10------|
E|-----|-----------------|-------|----------------------|--------------------------|--8----------------|


G|-----|-------------------|-------|----------------------|----------------------|----------------|
D|--8--|----8---8---7---5--|--5-3--|--3--3----------------|--8----5-8----5-------|-------------7--|
A|-----|--8----------------|-------|-------1---3---5---6--|----6-------6----7-8--|----8---10------|
E|-----|-------------------|-------|----------------------|----------------------|--8-------------|


[outro] 
                                                  (fade out)
G|-----|-------------------|--------------------------------|
D|--8--|----8---8---7---5--|----5---3---3--3----------------|
A|-----|--8----------------|--5--------------1---3---5---6--|
E|-----|-------------------|--------------------------------|



*****************

x : dead note

*****************

in regular sequence!


            
            
Suggest correction
Creating personal tab
Creating personal tab
You can edit any tab online and save it as your Personal.

You can edit, replace or remove any tab part or add personal notes – all changes will be seen only by you.

Personal tabs can be accessed anytime from any device, even offline.
Learn more »
Give kudos to tab author, rate the tab!
1 2 3 4 5
comments
print report bad tab
guest
You may want to rate the tab now too:
select rating
Wanna post a correction for this tab? Suggest correction