Oops, an error
Loading. Please wait.

Dweller On The Threshold Bass Tab

373 views 1 this week
no commentswrite comment
1 2 3 4 5
please rate
add to favorites
launch autoscroll
font size
0
reset
guitar tuner
Tab Pro tools
  • play this tab
  • loop segment
  • change instrument
  • show fretboard
  • metronome
×
Best way to learn
"Dweller On The Threshold"
Autoscroll
slow
fast
+/-
esc
set tempo
stop
Contributor
Dweller on the Threshold
Van Morrison
Bass Tab
Bassist: David Hayes

100BPM, 4/4

Intro

[two beats of no bass]

|-------------|-------------|------------|-------------|
|-----10------|-----10------|-----5------|-----5-------|
|-------------|-------------|------------|----------5--|
|-8------8----|-8------8----|-3-----3----|-3-----3-----|

Chorus

||--------------|-------------|------------|---------------|| *First time only
||o-----10------|-----10------|-----5------|-----5--------o||
||o-------------|-------------|------------|----------5*--o||
||--8------8----|-8------8----|-3-----3----|-3-----3-------||

Verse

|-----------|-----------|-----------|-----------|
|-----------|-----------|-----------|-----------|
|-----------|-----------|-----------|-----------|
|-0---00----|-0---00----|-3---33----|-3---33----|

|-------------|-----------|-----------|------------|
|-------------|-----------|-----------|------------|
|-------------|-----------|-----------|------------|
|-0---00---57-|-8---88----|-3---33----|-3----3--3--|

Chorus

||--------------|-------------|------------|---------------|| *First time
||o-----10------|-----10------|-----5------|-----5--------o||
||o-------------|-------------|------------|----------5*--o||
||--8------8----|-8------8----|-3-----3----|-3-----3-------||

Verse

|-----------|-----------|-----------|-----------|
|-----------|-----------|-----------|-----------|
|-----------|-----------|-----------|-----------|
|-0---00----|-0---00----|-3---33----|-3---33----|

|-------------|-----------|-----------|-------------|
|-------------|-----------|-----------|-------------|
|-------------|-----------|-----------|-------------|
|-0---00---57-|-8---88----|-3---33----|-3---33--3-2-|

Chorus

|-----------|-----------|-----------|-----------|
|-----------|-----------|-----------|-----------|
|-----------|-----------|-----------|-----------|
|-0---00----|-0---00----|-3---33----|-3---33----|

|-------------|-----------|-----------|------------|
|-------------|-----------|-----------|------------|
|-------------|-----------|-----------|---------5--|
|-0---00---57-|-8---88----|-3---33----|-3----3-----|

||--------------|-------------|------------|---------------|| *Second time
||o-----10------|-----10------|-----5------|-----5--------o||
||o-------------|-------------|------------|----------5*--o||
||--8------8----|-8------8----|-3-----3----|-3-----3-------||

Solo
                                                          4x
||--------------|-------------|------------|--------------|| *Last time
||o-----10------|-----10------|-----5------|-----5-------o||
||o-------------|-------------|------------|-------------o||
||--8------8----|-8------8----|-3-----3----|-3-----3--2*--||

Verse

|-----------|-----------|-----------|-----------|
|-----------|-----------|-----------|-----------|
|-----------|-----------|-----------|-----------|
|-0---00----|-0---00----|-3---33----|-3---33----|

|-------------|-----------|-----------|-----------|
|-------------|-----------|-----------|-----------|
|-------------|-----------|-----------|-----------|
|-0---00---57-|-8---88----|-3---33----|-3---33----|

|-----------|-----------|-----------|-----------|
|-----------|-----------|-----------|-----------|
|-----------|-----------|-----------|-----------|
|-0---00----|-0---00----|-3---33----|-3---33----|

|-------------|-----------|-----------|---------------|
|-------------|-----------|-----------|---------------|
|-------------|-----------|-----------|------------5--|
|-0---00--5-7-|-8---88----|-3---33----|-3-/10-0-3-----|

Chorus/Ending
                                                          3x
||--------------|-------------|------------|--------------||
||o-----10------|-----10------|-----5------|-----5-------o||
||o-------------|-------------|------------|----------5--o||
||--8------8----|-8------8----|-3-----3----|-3-----3------||

|-------------|--------------|------------|---------------|
|-----10------|-----10-------|-----5------|---------------|
|-------------|--------------|------------|------------5--|
|-8------8----|-8------8---0-|-3-----3----|-3-/10-0-3-----|

||--------------|-------------|------------|--------------||
||o-----10------|-----10------|-----5------|-----5-------o||
||o-------------|-------------|------------|----------5--o||
||--8------8----|-8------8----|-3-----3----|-3-----3------|| til fade
comments
We did not receive enough feedback on this tab! Please rate:
print report bad tab
1 2 3 4 5
I want to post or [tab]
guest
You may want to rate the tab now too:
select rating
Please do not post tabs as comments. Select "correction" instead!