Oops, an error
Loading. Please wait.

Gloria Tab

version 2
version 2

Whole song

Interactive

44,891 views 72 this week
2 commentsread comments
1 2 3 4 5
accurate
x 9
add to favorites
launch autoscroll
font size
0
reset
how to read this tab
guitar tuner
Autoscroll
slow
fast
+/-
esc
set tempo
stop
Help us to improve Ultimate-Guitar.com Take our survey!
×
-------------------------------------------------------------------------------
1. 			     Gloria - Van Morrison
-------------------------------------------------------------------------------
Tabbed by: James Browning
Email:jamesFNbrowning@comcast.net

Tuning: standard
	THIS RIFF GOES THROUGH THE WHOLE SONG MAINLY
e|—--0-0-2-0-0-0-------------------------------------------------------------|
B|—--0-0-3-0-2-0-------------------------------------------------------------|
G|-1-1-0-2-0-2-1-------------------------------------------------------------|
D|-2-2-----------------------------------------------------------------------|
A|-2-2-----------------------------------------------------------------------|
E|-0-0-----------------------------------------------------------------------|
			like to tell ya bout my baby, ya know she comes around.
She about five feet four...from her head to the ground
SOLO!!!!
e|-12-12-12—10-9--10---------------------------------------------------------|
B|-12-12-12—10-9--10---------------------------------------------------------|
G|-13-13-13—11-10-11---------------------------------------------------------|
D|---------------------------------------------------------------------------|
A|---------------------------------------------------------------------------|
E|---------------------------------------------------------------------------|
	bridge
e|-4—2-----------------------------------------------------------------------|
B|-5-3-0h2p0-----------------------------------------------------------------|
G|-4-2-----------------------------------------------------------------------|
D|---------------------------------------------------------------------------|
A|---------------------------------------------------------------------------|
E|---------------------------------------------------------------------------|
	riff 2
e|---------------------------------------------------------------------------|
B|---------------------------------------------------------------------------|
G|----------7----------------------------------------------------------------|
D|—7-5h7p5----5------7-5h7p5-0-5---------------------------------------------|
A|---------------------------------------------------------------------------|
E|---------------------------------------------------------------------------|
	comes a walkin down my street, why dontcha come to my house....

riff one
like to tell ya bout my baby
ya know she comes around
just about five feet four 
from her head to the ground
ya know she comes around here
just about midnight
she makes me feel so good, lord
she makes me feel allright
and her name is g-l-o-r-iiiiii
g-l-o-r-i-a
gloria
gloria
gloria
yeah yeah yeah so good 
allright
feels so good 
allright yeah
SOLO
bridge
riff 2
she comes around here 
just about midnight
she make me feel so good, lord
she make me feel allright
she comes a walkin down the street
why don't ya come to my house
she knock upon my door
then she come to my room
then she make me feel allright
GLORIA(pick up with main riff 1)
I'm gonna shout it allnight
im gonna shout it all day 
finish with solo
| /  slide up
| \  slide down
| h  hammer-on
| p  pull-off
| ~  vibrato
| +  harmonic
| x  Mute note
==============================================================================
Suggest correction
What's this?
You can suggest a correction to this tab. Community and Mods will review your correction and vote to approve or reject it.
comments
print report bad tab
2 comments total.
0 reply
madguitar1086 32 wrote on July 23 2013, 04:28 pm

The solo and riff 2 are incorrect.

Solo
-12-12-12-10-9--10-
-12-12-12-10-10-10-
-13-13-13-11-9--11-
-------------------
-------------------
-------------------

Riff 2
-----------------------
-----------------------
-------------------14--
-14-----12h14p12-------
-----------------------
-----------------------

0 reply
acolddayinhoth 167 wrote on June 18 2015, 04:30 pm

Awesome! Thanks for posting that! It was getting difficult to learn. Sorry, I accidentally gave you a -1, I meant give you a +1 and I'm not able to change it.

guest
You may want to rate the tab now too:
select rating
Please do not post tabs as comments. Select "correction" instead!