Oops, an error
Loading. Please wait.

Gypsy bass

118 views 1 this week
no commentswrite comment
1 2 3 4 5
3 more votes to show rating
add to favorites
×
Save as Personal and add changes to this tab that will be seen only by you. Learn more ›
×
You can save this tab as Personal to edit and correct it or add notes. All changes will be seen only by you. Learn more »
launch autoscroll
font size
0
reset
guitar tuner
edit
Autoscroll
slow
fast
+/-
esc
set tempo
stop
Author
Difficulty
[Intro]
G|----------------|----------------|----------------|----------------|
D|----------------|----------------|----------------|----------------|
A|-1-1-1-1--------|----------------|-1-1-1-1--------|----------------|
E|---------4-4-4-4|-3-3-3-3-2-1-1-4|---------4-4-4-4|-3-3-3-3-2-1-1-4|

G|----------------|----------------|----------------|-----------------|
D|----------------|----------------|-3-3-3-3-3-3----|-----3-----------|
A|-1-1-1-1--------|-------------1-3|-------------1-3|-----------------|
E|---------4-4-4-4|-3-3-3-3-2-2----|----------------|-1---------------|

[Verse 1]
G|-----------------|-----------------|-----------------|--------------------|
D|-----------------|-----------------|-----------------|-----4---------3----|
A|-1----3--4------4|-1----3--4------4|-1----3--4-------|---4---------3------|
E|--------------4--|--------------4--|--------------4-3|-2------2--1------1-|

G|-----------------|-----------------|----------------------|-----------------|
D|-----------------|-----------------|---4----------3-------|-----------------|
A|-1----3--4------4|-1----3--4-------|-----4---4------3---3-|-1-----1-------0-|
E|--------------4--|--------------4-3|-2-----2----1-----1---|---------1--4----|

G|-----------------|-----------------|-----------------|--------------------|
D|-----------------|-----------------|-----------------|-----4---------3----|
A|-1----3--4------4|-1----3--4------4|-1----3--4-------|---4---------3------|
E|--------------4--|--------------4--|--------------4-3|-2------2--1------1-|

G|-----------------|-----------------|----------------------|----------------------|
D|-----------------|-----------------|-----4----------3-----|----------------------|
A|-1----3--4------4|-1----3--4-------|---4---4------3---3---|-1-------------1---1--|
E|--------------4--|--------------4-3|-2-------2--1-------1-|-------------1---1---1|

[Chorus]
G|---------------------------|---------------------------|
D|---------------------------|---------------------------|
A|-1--1---1-1--1--1----------|-1--1---1-1--1--1----------|
E|------1------------1-4-1-4-|------1------------1-4-1-4-|

G|---------------------------|----------------|----------------|
D|---------------------------|----------------|----------------|
A|-1--1---1-1--1--1----------|-1-1-1-1--------|----------------|
E|------1------------1-4-1-4-|---------4-4-4-4|-3-3-3-3-2-2-2-1|

G|---------------------------|---------------------------|
D|---------------------------|---------------------------|
A|-1--1---1-1--1--1----------|-1--1---1-1--1--1----------|
E|------1------------1-4-1-4-|------1------------1-4-1-4-|

G|---------------------------|----------------|----------------|
D|---------------------------|----------------|----------------|
A|-1--1---1-1--1--1----------|-1-1-1-1--------|-------------1-3|
E|------1------------1-4-1-4-|---------4-4-4-4|-3-3-3-3-2-2----|

G|----------------|-----------------|
D|-3-3-3-3-3-3----|-----3-----------|
A|-------------1-3|-----------------|
E|----------------|-1---------------|

[Verse 2]
G|-----------------|-----------------|-----------------|--------------------|
D|-----------------|-----------------|-----------------|-----4---------3----|
A|-1----3--4------4|-1----3--4------4|-1----3--4-------|---4---------3------|
E|--------------4--|--------------4--|--------------4-3|-2------2--1------1-|

G|-----------------|-----------------|----------------------|-----------------|
D|-----------------|-----------------|---4----------3-------|-----------------|
A|-1----3--4------4|-1----3--4-------|-----4---4------3---3-|-1-----1-------0-|
E|--------------4--|--------------4-3|-2-----2----1-----1---|---------1--4----|

G|-----------------|-----------------|-----------------|--------------------|
D|-----------------|-----------------|-----------------|-----4---------3----|
A|-1----3--4------4|-1----3--4------4|-1----3--4-------|---4---------3------|
E|--------------4--|--------------4--|--------------4-3|-2------2--1------1-|

G|-----------------|-----------------|----------------------|----------------------|
D|-----------------|-----------------|---4----------3-------|----------------------|
A|-1----3--4------4|-1----3--4-------|-----4---4------3---3-|-1-------------1---1--|
E|--------------4--|--------------4-3|-2-----2----1-----1---|-------------1---1---1|

[Chorus]
G|---------------------------|---------------------------|
D|---------------------------|---------------------------|
A|-1--1---1-1--1--1----------|-1--1---1-1--1--1----------|
E|------1------------1-4-1-4-|------1------------1-4-1-4-|

G|---------------------------|----------------|----------------|
D|---------------------------|----------------|----------------|
A|-1--1---1-1--1--1----------|-1-1-1-1--------|----------------|
E|------1------------1-4-1-4-|---------4-4-4-4|-3-3-3-3-2-2-2-1|

G|---------------------------|---------------------------|
D|---------------------------|---------------------------|
A|-1--1---1-1--1--1----------|-1--1---1-1--1--1----------|
E|------1------------1-4-1-4-|------1------------1-4-1-4-|

G|---------------------------|----------------|----------------|
D|---------------------------|----------------|----------------|
A|-1--1---1-1--1--1----------|-1-1-1-1--------|-------------1-3|
E|------1------------1-4-1-4-|---------4-4-4-4|-3-3-3-3-2-2----|

G|----------------|-----------------------|
D|-3-3-3-3-3-3----|-----3------3--6--3--6-|
A|-------------1-3|-----------------------|
E|----------------|-1---------------------|

[Bridge]
G|-----------------|-----------------3|-----------------|-------------------3|
D|-4-----5-6---6---|--------------3---|-4-----4-6---6---|----------------3---|
A|---------------6\|-1------1--4------|---------------6\|-1----1---1--4------|
E|-----------------|------------------|-----------------|--------1-----------|

G|-----------------|-----------------------|------------------|-----------------|
D|-4-----4-6-------|---------6--8--6-------|-------------.----|-----------------|
A|--------------6-5|-4--6-/8--------8-----8|-6--4--------6--4\|-1-----1-------0-|
E|-----------------|-------------------6---|-------6--4-------|---------1--4----|

[Verse 3]
G|-----------------|-----------------|-----------------|--------------------|
D|-----------------|-----------------|-----------------|-----4---------3----|
A|-1----3--4------4|-1----3--4------4|-1----3--4-------|---4---------3------|
E|--------------4--|--------------4--|--------------4-3|-2------2--1------1-|

G|-----------------|-----------------|----------------------|----------------------|
D|-----------------|-----------------|---4----------3-------|----------------------|
A|-1----3--4------4|-1----3--4-------|-----4---4------3---3-|-1-------------1---1--|
E|--------------4--|--------------4-3|-2-----2----1-----1---|-------------1---1---1|

[Chorus]
G|---------------------------|---------------------------|
D|---------------------------|---------------------------|
A|-1--1---1-1--1--1----------|-1--1---1-1--1--1----------|
E|------1------------1-4-1-4-|------1------------1-4-1-4-|

G|----------------------------|----------------|----------------|
D|----------------------------|----------------|----------------|
A|-1-1-1---1-1--1--1----------|-1-1-1-1--------|----------------|
E|-------1------------1-4-1-4-|---------4-4-4-4|-3-3-3-3-2-2-2-1|

G|----------------------------|----------------------------|
D|----------------------------|----------------------------|
A|-1-1-1---1-1--1--1----------|-1-1-1---1-1--1--1----------|
E|-------1------------1-4-1-4-|-------1------------1-4-1-4-|

G|----------------------------|----------------|----------------|
D|----------------------------|----------------|----------------|
A|-1-1-1---1-1--1--1----------|-1-1-1-1--------|-------------1-3|
E|-------1------------1-4-1-4-|---------4-4-4-4|-3-3-3-3-2-2----|

G|----------------|-----------------------|
D|-3-3-3-3-3-3----|-----3-----------------|
A|-------------1-3|----------------1---1--|
E|----------------|-1------------1---1---1|

[Outro]
G|---------------------------|---------------------------|
D|---------------------------|---------------------------|
A|-1--1---1-1--1--1----------|-1--1---1-1--1--1----------|
E|------1------------1-4-1-4-|------1------------1-4-1-4-|

G|---------------------------|----------------|----------------|
D|---------------------------|----------------|----------------|
A|-1--1---1-1--1--1----------|-1-1-1-1--------|----------------|
E|------1------------1-4-1-4-|---------4-4-4-4|-3-3-3-3-2-2-2-1|

G|----------------------------|----------------------------|
D|----------------------------|----------------------------|
A|-1-1-1---1-1--1--1----------|-1-1-1---1-1--1--1----------|
E|-------1------------1-4-1-4-|-------1------------1-4-1-4-|

G|----------------------------|----------------|----------------|
D|----------------------------|----------------|----------------|
A|-1-1-1---1-1--1--1----------|-1-1-1-1--------|-------------1-3|
E|-------1------------1-4-1-4-|---------4-4-4-4|-3-3-3-3-2-2----|

G|----------------|-----------------|
D|-3-3-3-3-3-3----|-----3-----------|
A|-------------1-3|-----------------|
E|----------------|-1---------------|



************************

| / slide up
| \ slide down
| . staccato

************************

            
            
Suggest correction
Creating personal tab
Creating personal tab
You can edit any tab online and save it as your Personal.

You can edit, replace or remove any tab part or add personal notes – all changes will be seen only by you.

Personal tabs can be accessed anytime from any device, even offline.
Learn more »
Give kudos to tab author, rate the tab!
1 2 3 4 5
comments
print report bad tab
guest
You may want to rate the tab now too:
select rating
Wanna post a correction for this tab? Suggest correction