Oops, an error
Loading. Please wait.

Here Comes The Night chords

21,365 views 27 this week
2 commentsread comments
1 2 3 4 5
x 14
add to favorites
×
Save as Personal and add changes to this tab that will be seen only by you. Learn more ›
×
You can save this tab as Personal to edit and correct it or add notes. All changes will be seen only by you. Learn more »
launch autoscroll
font size
0
reset
transpose
0
reset
display chords
guitar tuner
edit
Autoscroll
slow
fast
+/-
esc
set tempo
stop
Author
Strumming
There is no strumming pattern for this song yet. and get +5 IQ
Song: Here Comes the Night (Bert Burns)
Artist: Van Morrison
Album: Them

Tabbed by Patrick Rickelton

Guitar intro: E  A

---------------|
---------------|
---------------| This 3x
----2-------0--|
--2---2--4-----|
---------------|

                  E
Whoa here it comes,
A               E
Here comes the night,
A              E
Here comes the night,
A                  E    B
Woh-oo oh-oo oh-oo yeah.

------------------|
------------------|
------------------|
----2---1--1-2--4-|
--2---2-----------|
------------------|


Verse 1

E
I could see right out my window,
B
Walking down the street,
             E          A   B
My girl with another guy,

Guitar lick:
------------------------|
------------------------|
--9------9-------8------|
----9s11---11s7-----9---|
------------------------|
------------------------|

E                                          B
His arm around her like it used to be with me.
                 E
Oh-oo it makes me want to die.

----------------------------|
----------------------------|
--11--9--8------------------|
------------11--9--7--6--4--|
----------------------------|
----------------------------|

B                                 E
Yeah-e yeah-e yeah-e well here it comes,


Chorus
A              E
Here comes the night,
A              E
Here comes the night,
A                 E    B
Oh-oo oh-oo oh-oo yeah.

Verse2
There they go,
It's funny how they look so good together,
Wonder what is wrong with me.
Why can't I accept the fact she's chosen him,
And simply let them be.
Wo-oo oh-oo oh well here it comes,

Here comes the night,
Here comes the night,
Oh-oo oh-oo oh-oo yeah.


Verse 3
She's with him,
He's turning down the lights,
And now he's holdin' her,
The way I used to do.
I could see her closing her eyes,
And tellin' him lies,
Exactly like she told me too.
Yeah-e yeah-e yeah-e well here it comes,

Chorus
Here comes the night,
The long the long the lonely night,
Nigh nigh nigh nigh nigh night,
Whoa, here comes the night,
The long the long the long the lonely night
Night night night night...
Whoa, here comes the night (fade)

            
            
Suggest correction
Creating personal tab
Creating personal tab
You can edit any tab online and save it as your Personal.

You can edit, replace or remove any tab part or add personal notes – all changes will be seen only by you.

Personal tabs can be accessed anytime from any device, even offline.
Learn more »
comments
print report bad tab
2 comments total.
0 reply
royaltenenbaum 10 Dec 20, 2011 12:45 PM

---------------|
---------------|
---------------| This 3x
----2-------0--|
--2---2--4-----|
---------------|

I think this sounds good for the intro, but I also play it like this;

---------------|
---------------|
---------------| This 3x
----2----------|
2-2---2--4--0--|
---------------|

0 reply
danny.cheatham. 10 Jan 29, 2014 10:58 PM

Spot on great tab. Thanks

guest
You may want to rate the tab now too:
select rating
Wanna post a correction for this tab? Suggest correction