Oops, an error
Loading. Please wait.

Precious Time Bass Tab

613 views 1 this week
no commentswrite comment
1 2 3 4 5
1 last vote to show rating
add to favorites
launch autoscroll
font size
0
reset
guitar tuner
Autoscroll
slow
fast
+/-
esc
set tempo
stop
Help us to improve Ultimate-Guitar.com Take our survey!
×
Author
Difficulty
novice
tabbed by Tom Vink

start from the beginning!

    G-Chord        C-Chord        G-Chord     D-Chord         G-Chord
G|--------------|--------------|------------|--------------|--------------|
D|--------------|-----2--5--2--|------------|-----4--7--4--|--------------|
A|-----2--5--2--|--3-----------|-----2--5--2|--5-----------|-----2--5--2--|
E|--3-----------|--------------|--3---------|--------------|--3-----------|

    C-Chord       G-chord   D-chord
G|--------------|--------------------|
D|-----2--5--2--|--------------------|
A|--3-----------|-----2--5-----------|
E|--------------|--3--------0-1-2-3--|

Repeat this al the time and you can play this easy song! 
Suggest correction
Give kudos to tab author, rate the tab!
1 2 3 4 5
comments
print report bad tab
guest
You may want to rate the tab now too:
select rating
Wanna post a correction for this tab? Suggest correction