Oops, an error
Loading. Please wait.

De Madrugada tab

35 views 1 this week
no commentswrite comment
1 2 3 4 5
3 more votes to show rating
add to favorites
×
Save as Personal and add changes to this tab that will be seen only by you. Learn more ›
×
You can save this tab as Personal to edit and correct it or add notes. All changes will be seen only by you. Learn more »
launch autoscroll
font size
0
reset
how to read this tab
guitar tuner
edit
Autoscroll
slow
fast
+/-
esc
set tempo
stop
INTRO

e|-7-----5-5/7-5-----------|-----------------------|
B|-7---7---------7-5-5/7-7-|-----7-7/8-7-----------|
G|-7-7---------------------|---7---------9-7-7/9-9-|
D|-------------------------|-9---------------------|
A|-------------------------|-----------------------|
E|-------------------------|-----------------------|

e|-----------------|---5-----7-----9---|
B|-----------------|-------------------|
G|-11/9/7-6-7-7/11-|-6---6/7---7/9---9-|
D|-----------------|-------------------|
A|-----------------|-------------------|
E|-----------------|-------------------|

Bm
Siento tus caricias yo soy una pared
D            A
Siento tus abrazos y es tu blus aquel
G      D           A
Me dejaste como un recuerdo
   F#m
De lo que hicimos ayer

Bm
Siento el aroma que dejas al pasar
D          A
Siento tu tacto cuando me hace vibrar
G           A                 Bm
Siento tus labios usando y el mar
A         G  A
Testigo será
  Bm A               G  A
Allá donde nadie estará

  Bm                    A
Y yo como te miro no se nota que te ame
D                     A             F#m     Bm      A  G A
Tú solo tientas en calmarme con tu cuerpo y blus y tú

  F#m                         A
No sabes lo que quiero pero crees que estoy contento y no
D                       A         Bm    A
Lo que quiero es que me ames como yo así

CORO

G       A   D
Como un amor
          A
Cuando te ama
         G
Una canción
        A
De madrugada
G     A     D
Como una flor
       A
Una caricia
    F#m     G
Que tu corazón
          A
No analiza

SOLO

Bm                                              D
Pienso en lo que piensas cuando te hablo de amor
               A                    G
Pienso que mi vida gira a tu alrededor
               A                    Bm       A
Pienso que tu cuerpo es el sol y la tierra yo
           G  A    Bm  A
A tu alrededor, allá
              G   A
Muy lejos de amor

  Bm                    A
Y yo como te miro no se nota que te ame
D                     A             F#m     Bm      A  G A
Tú solo tientas en calmarme con tu cuerpo y blus y tú

  F#m                         A
No sabes lo que quiero pero crees que estoy contento y no
D                       A         Bm    A
Lo que quiero es que me ames como yo así

CORO

G       A   D
Como un amor
          A
Cuando te ama
         G
Una canción
        A
De madrugada
G     A     D
Como una flor
       A
Una caricia
    F#m     G
Que tu corazón
          A
No analiza

G        A  D
Y es tu sonrisa
          A
La que me mata
          G
Y es tu mirada
           A
Que me arrebata
G       A   D
Y es que tus besos
            A
Son más que eso
F#m      G
Pero tu amor
                A
Me saca de control
                   Bm
Aunque no lo tenga yo

e|-7-----5-5/7-5-----------|-------------------|-2-|
B|-7---7---------7-5-5/7-7-|-----7/8-7---------|-3-|
G|-7-7---------------------|---7---------9-7-6-|-2-|
D|-------------------------|-9-----------------|-0-|
A|-------------------------|-------------------|-0-|
E|-------------------------|-------------------|---|

            
            
Suggest correction
Creating personal tab
Creating personal tab
You can edit any tab online and save it as your Personal.

You can edit, replace or remove any tab part or add personal notes – all changes will be seen only by you.

Personal tabs can be accessed anytime from any device, even offline.
Learn more »
Give kudos to tab author, rate the tab!
1 2 3 4 5
comments
print report bad tab
guest
Wanna post a correction for this tab? Suggest correction