Oops, an error
Loading. Please wait.

Hazme Cambiar tab

5 views 1 this week
no commentswrite comment
1 2 3 4 5
3 more votes to show rating
add to favorites
×
Save as Personal and add changes to this tab that will be seen only by you. Learn more ›
×
You can save this tab as Personal to edit and correct it or add notes. All changes will be seen only by you. Learn more »
launch autoscroll
font size
0
reset
how to read this tab
guitar tuner
edit
Autoscroll
slow
fast
+/-
esc
set tempo
stop
Intro:

rapido
E.-9/10-9-7-------------------------------------|
B.-----------10-9-------------------------------
G.----------------------------------------------
D.----------------------------------------------
A.----------------------------------------------
E.----------------------------------------------

       MI                 DO           RE            SI
E.----------------------------------------------|
B.-7-9-10---3-5-7--5-7-9--2-4--------------------
G.----------------------------------------------- x2
D.-----------------------------------------------
A.-----------------------------------------------
E.-----------------------------------------------

rapido
E.-9/10-9-7-------------------------------------|
B.-----------10-9-------------------------------
G.----------------------------------------------
D.----------------------------------------------
A.----------------------------------------------
E.----------------------------------------------


Versos:
MI
Guardo mis historias en un baúl

DO
Dejo mis costumbres

          RE
en un lugar de mi casa esta

                 SI
esperando por ti


sentado y pensando en este bar
aunque me consueles
no basta intentame librar
de esta soledad


te conocí y no es lo mismo que ayer
hasme cambiar
hoy quiero sentuir otro amoooooor
porqueeee

CORO:
                       MI
No quieres verme sufrir

                      DO
No quieres verme llorar

             RE
hasme cambiar

                  SI
Liberame las penass


                       MI
No quieres verme sufrir

                      DO
No quieres verme llorar

            RE
hasme cambiar

                     SI
desata mis cadenaaas


rapido
E.-9/10-9-7-------------------------------------|
B.-----------10-9-------------------------------
G.----------------------------------------------
D.----------------------------------------------
A.----------------------------------------------
E.----------------------------------------------


 SOLO:

 E.-------------7---5/6-5--------------------------|
B.-7??--7-9--7---------------------------------------------
G.---------------------------------------------------
D.-------------------------------------------------
A.--------------------------------------------------
E.------------------------------------------------

E.----------------------------------------------|
B.-5-6-5--5-8-7-5------------------------------------------
G.------------------8-7-5----------------------------------
D.--------------------------8-7-5??------------------------
A.--------------------------------------------------
E.------------------------------------------------


E.--------6-5-6-8--8--12--12-12-12-11-11-11-9-7------
B.-5/6-5-------------------------------------------------
G.---------------------------------------------------
D.-------------------------------------------------
A.--------------------------------------------------
E.------------------------------------------------

Con esta cancion mando un saludo muy especial a una chica
que dejo gran huella en mi corazon. . .

Saludos a guayaquil¡¡¡¡¡


Comentarios, ayuda, o panas a mi correo:

Marco15rio@


RIOBAMBA - ECUADOR


Marcko Antonio Ramos.

            
            
Suggest correction
Creating personal tab
Creating personal tab
You can edit any tab online and save it as your Personal.

You can edit, replace or remove any tab part or add personal notes – all changes will be seen only by you.

Personal tabs can be accessed anytime from any device, even offline.
Learn more »
Give kudos to tab author, rate the tab!
1 2 3 4 5
comments
print report bad tab
guest
Wanna post a correction for this tab? Suggest correction