Oops, an error
Loading. Please wait.

The Celestial Railroad tab

31 views 1 this week
no commentswrite comment
1 2 3 4 5
2 more votes to show rating
add to favorites
×
Save as Personal and add changes to this tab that will be seen only by you. Learn more ›
×
You can save this tab as Personal to edit and correct it or add notes. All changes will be seen only by you. Learn more »
launch autoscroll
font size
0
reset
how to read this tab
guitar tuner
edit
Autoscroll
slow
fast
+/-
esc
set tempo
stop
Author
Difficulty
The Celestial Railroad - Van Walker 

From: The Celestial Railroad (2008)

Tabbed by: Jucko

Tuning: Standard

Nb. Feel free to use this riff on any of the many, many E Major chords:

|--------0--|
|--------0--|
|--------2--|
|--------3--|
|--------3--|
|-0-2r-0-0--|


Intro

One, two, three, four, five...  
  
|----------------------------------------------------------|
|-0-2-3—3h4---2--------------------------------------------|
|-----------4---2-4-1-2-0-1--------------------------------|
|---------------------------2-4-----2—4r-2-------2-4-2---2-|
|-------------------------------2-4----------2-4-------4---|
|----------------------------------------------------------|

Verse 1
            E                      E  
Well I been rolled & ragged, I been bruised and battered
      E                       E
I been made to bow down on my knees 
          E                         E
And I been tricked & cheated, I been plain mistreated
         E
But now I don't need no one's sympathy

Chorus
        C#m           E                  C#m            E        
‘Cause I keep, I keep moving through the deep recess of time
        C#m          E 
I don't need my luck improving
  A
I believe that I'll be happy
                       E                 E   
Just as long as I can get myself some relief

Verse 2 
            E                           E    
You see I’m feared and frightened, I got chased by lightning          
              E                           E   
I had had that big bad wolf break down my door
           E                           E
And I been sold down the lake, I got-a stung by heartache
        E                           E       
Now I'm cursed with headaches and remorse

Chorus

Verse 3
              E                        E
You see I been bought & broken, I got-a rudely awoken
         E                       E
You know I've chose to hold that bloody knife
           E                            E
And I been drowned in the water, I got-a run right over
          E                           E 
You know I rolled that boulder all my life

Chorus

Solo
   
E|------------------------------------------------------------------|
B|-----7B------7B--7r--5-5----7-5------7b------7b--7r--5-5---7-5-7B-|
G|-------------------------------6----------------------------------|
D|------------------------------------------------------------------|
A|------------------------------------------------------------------|
E|------------------------------------------------------------------|

E|---5-7-5---------------------------------------------------------|
B|---------9-7B--5-7-5---5---------5-5-----5-----------------------|
G|---------------------6-------4-------6-----6-4---4---------------|
D|-----------------------------------------------6---6-4---4-------|
A|-------------------------------------------------------7---7-4---|
E|---------------------------------------------------------------7-|
                                          
E|-------------------------------------------------------------------|
B|-------------------------------------------------5-------5---5---5-|
G|---------------------4-6-4---4---------------4-6-------6------4h6--|
D|---------4---4-4/6--------4h6--4---2------4h6----------------------|
A|-4-7---7---7-------------------------------------------------------|
E|-------------------------------------------------------------------|
  
E|-------------------------------------------------------7-----------|
B|---------5h7-5---5--------7r-5-----7r--5-7-7r-5-----7/9-9\7-5----5-|
G|-4-------------6---------------6-4--------------6-4-----------6----|
D|-----6-------------------------------------------------------------|
A|-------------------------------------------------------------------|
E|-------------------------------------------------------------------|
   
Verse 4 
            E                           E 
Well I been kidnapped by fleas, I caught every disease
           E                            E
And all my, all my doctors closed their doors
           E                               E 
And I been stitched up, shook down, I been messed with, fucked around
           E                E       
And now I, I ain't angry anymore                                                                                

Chorus


B -  Full bend
b -  Half bend
r -  Half bend, release
h -  Hammer on
/ -  Slide up
\ -  Slide down

            
            
Suggest correction
Creating personal tab
Creating personal tab
You can edit any tab online and save it as your Personal.

You can edit, replace or remove any tab part or add personal notes – all changes will be seen only by you.

Personal tabs can be accessed anytime from any device, even offline.
Learn more »
Give kudos to tab author, rate the tab!
1 2 3 4 5
comments
print report bad tab
guest
You may want to rate the tab now too:
select rating
Wanna post a correction for this tab? Suggest correction