Oops, an error
Loading. Please wait.

Emmylou Chords

version 1
version 1

Whole song

14,009 views 15 this week
1 commentread comment
1 2 3 4 5
accurate
x 4
add to favorites
launch autoscroll
font size
0
reset
transpose
0
reset
display chords
guitar tuner
Tab Pro tools
  • play this tab
  • loop segment
  • change instrument
  • show fretboard
  • metronome
×
Best way to learn
"Emmylou"
Autoscroll
slow
fast
+/-
esc
set tempo
stop
Contributor
Difficulty
novice
Standard Tuning, No Capo

My first Tab ever here guys, and I'm kinda wined up, so feel free to correct as you will.

Vance plays F, F, Am, G throughout the entire song. Obviously there's picking involved
but I'm too pissed to make a decent attempt at tabbing it out. It's a basic strum
pattern, with a hammer on the 4th (G) string 2nd fret, but you'll need someone a bit 
more focused than me to help tab it out properly. It's a beautiful song from an amazing 
artist, so
hopefully someone puts in the effort.

Hopefully at least the lyrics are close.

Keep them coming Vance, you're an inspiration.

Verse 1-
Oh, if you're losing sleep,
h if you're losing sleep, scared of shadows
I see it's just a chair,
See you're clothes hang there
Don't go losing sleep scared of shadows.

Chorus -
Oh don't feel bad
I never have
Since I got you
My Emmylou

Verse 2-
You wear your socks to bed
You wear your socks to bed, that's what I do
Oh come on sleepyhead, get yourself to bed,
Don't go losing all the night time

Chorus x1

You are Love
x4

(Picking)

You are love
x4 (over Chorus)
comments
print report bad tab
1 comment total.
0 reply
GuitarBacon123 wrote on October 8 2013, 06:14 am

(Just a guess, but it sounds close)

F chord
E|------------------------------------
B|---------------------------1--------
G|-----2-----2-----0(h)2----------2--- x2
D|-----3------------------------------
A|--3-----3-----3---------3-----3-----
E|------------------------------------

Am Chord
E|------------------------------------
B|---------------------------1--------
G|-----2-----2-----0(h)2----------2---
D|-----2------------------------------
A|--0-----0-----0---------0-----0-----
E|------------------------------------

G chord
E|------------------------------------
B|------------------------------------
G|-----0-----------------0------0----- (Note: the last open G/D is for
D|-----0-----0-----0--------0---0----- the intro, the rest you just
A|------------------------------------ skip it.)
E|--3-----3-----3-----3---------------

I want to post or [tab]
guest
You may want to rate the tab now too:
select rating
Please do not post tabs as comments. Select "correction" instead!