Oops, an error
Loading. Please wait.

Fire And The Flood chords

version 3
version 3

Whole song

  • The correct version that Vance Joy plays himself live.
  • Formatted for 2 printed sheets songbook style, tablature embedded in lyric sheet.

Video

10,768 views 126 this week
2 commentsread comments
1 2 3 4 5
x 26
add to favorites
×
Save as Personal and add changes to this tab that will be seen only by you. Learn more ›
×
You can save this tab as Personal to edit and correct it or add notes. All changes will be seen only by you. Learn more »
launch autoscroll
font size
0
reset
transpose
0
reset
simplify chords
display chords
guitar tuner
edit
Autoscroll
slow
fast
+/-
esc
set tempo
stop
About this tab version
The correct version that Vance Joy plays himself live. Was this info helpful? Yes No
Strumming Is this strumming pattern correct? Yes No
116 bpm
1
 
&
 
2
 
&
 
3
 
&
 
4
 
&
 
Listen
Artist : Vance Joy
Song : Fire And The Flood
Tabbed by : Dave Tran
instagram : davetran
email : davetran01@gmail.com
Tuning - Down 1 whole step
Key : Fmajor

       ------------------------------------------------------------------
     VIDEO TUTORIAL ON THIS SONG - https://www.youtube.com/watch?v=L7j7I17c9Mg
       ------------------------------------------------------------------

       ------------------------------------------------------------------
                            TUNE DOWN ONE WHOLE STEP
       ------------------------------------------------------------------

This is the EXACT way Vance plays it live, tuned down a full step. Easy to play but sounds brilliant.

[Intro] x 2
  G
d|-----------------|-----------------|
A|-----------------|-----------------|
F|----0-----0------|----0-----0------|
C|-0-----0-----0---|-0-----0-----0---|
G|-----------------|-----------------|
D|-3-3-3-3-3-3-3-3-|-3-3-3-3-3-3-3-0-|


[Verse]

   G
d|-----------------|-----------------|
A|-----------------|-----------------|
F|----0-----0------|----0-----0------|
C|-0-----0-----0---|-0-----0-----0---|
G|-----------------|-----------------|
D|-3-3-3-3-3-3-3-3-|-3-3-3-3-3-3-3-0-| x 2

   C/G              
d|-----------------|-----------------|
A|-----------------|-----------------|
F|----0-----0------|----0-----0------|
C|-2-----2-----2---|-2-----2-----2---|
G|-----------------|-----------------|
D|-3-3-3-3-3-3-3-3-|-3-3-3-3-3-3-3-0-|

   G
d|-----------------|-----------------|
A|-----------------|-----------------|
F|----0-----0------|----0-----0------|
C|-0-----0-----0---|-0-----0-----0---|
G|-----------------|-----------------|
D|-3-3-3-3-3-3-3-3-|-3-3-3-3-3-3-3-0-|


[Pre-Chorus]

   C/G                 G
d|-----------------|-----------------|
A|-----------------|-----------------|
F|----0-----0------|----0-----0------|
C|-2-----2-----2---|-0-----0-----0---|
G|-----------------|-----------------|
D|-3-3-3-3-3-3-3-3-|-3-3-3-3-3-3-3-0-|

   D              
d|-----------------|-----------------|
A|-----------------|-----------------|
F|----0-----0------|----0-----0------|
C|-4-----4-----4---|-4-----4-----4---|
G|-5-5-5-5-5-5-5-5-|-5-5-5-5-5-5-5---|
D|-----------------|---------------0-|


[Chorus 1st half] x 2
   Em                C/G
d|-----------------|-----------------|
A|-----------------|-----------------|
F|----0-----0------|----0-----0------|
C|-2-----2-----2---|-2-----2-----2---|
G|-----------------|-----------------|
D|-0-0-0-0-0-0-0-0-|-3-3-3-3-3-3-3-0-|

   G
d|-----------------|-----------------|
A|-----------------|-----------------|
F|----0-----0------|----0-----0------|
C|-0-----0-----0---|-0-----0-----0---|
G|-----------------|-----------------|
D|-3-3-3-3-3-3-3-3-|-3-3-3-3-3-3-3-0-|


[Chorus 2nd half] x 2
   Em                C/G
d|-----------------|-----------------|
A|-----------------|-----------------|
F|----0-----0------|----0-----0------|
C|-2-----2-----2---|-2-----2-----2---|
G|-----------------|-----------------|
D|-0-0-0-0-0-0-0-0-|-3-3-3-3-3-3-3-0-|

   G                 D
d|-----------------|-----------------|
A|-----------------|-----------------|
F|----0-----0------|----0-----0------|
C|-0-----0-----0---|-4-----4-----4---|
G|-----------------|-5-5-5-5-5-5-5---|
D|-3-3-3-3-3-3-3-3-|---------------0-|


[Bridge]

   C       D         Em
d|-----------------|-----------------|
A|-----------------|-----------------|
F|-0-------0-------|-0---------------|
C|-2-------4-------|-5---------------|
G|-3-------5-------|-7---------------|
D|-----------------|-----------------|

   C       D         G
d|-----------------|-----------------|
A|-----------------|-----------------|
F|-0-------0-------|-----------------|
C|-2-------4-------|-0---------------|
G|-3-------5-------|-2---------------|
D|-----------------|-3---------------|

   D              
d|-----------------|-----------------|
A|-----------------|-----------------|
F|----0-----0------|----0-----0------|
C|-4-----4-----4---|-4-----4-----4---|
G|-5-5-5-5-5-5-5-5-|-5-5-5-5-5-5-5-5-|
D|-----------------|-----------------|

   D              
d|-----------------|-----------------|
A|-----------------|-----------------|
F|----0-----0------|-----------------|
C|-4-----4-----4---|-4---------------|
G|-5-5-5-5-5-5-5-5-|-5---------------|
D|-----------------|-----------------|




       ------------------------------------------------------------------
                               CHORDS AND LYRICS
       ------------------------------------------------------------------


[Verse 1]

G
I was only walking through your neighbourhood
G
Saw your light on, honey; in the cold I stood
C/G
Anywhere I go, there you are
G
Anywhere I go, there you are
G
I've been getting used to waking up with you
G
I've been getting used to waking up here
C/G
Anywhere I go, there you are
G
Anywhere I go, there you are
C/G           G 
There you are, 
          D
there you are


[Chorus]

Em         C/G          G
You're the fire and the flood
             Em       C/G   G
And I always feel you in my blood
              Em        C/G                 G             D
Everything is fine when your head's resting next to mine, next to mine
Em         C/G            G      D
You're the fire and the flood


[Break]
Em C G D
Em C G D


[Verse 2]

G
Since we met, I feel a lightness in my step
G
You're miles away, but I still feel you
C/G
Anywhere I go, there you are (anywhere)
G
Anywhere I go, there you are
G
Late at night, when you can't fall asleep
G
I'll be lying right beside you, counting sheep
C/G
Anywhere I go, there you are (anywhere)
G
Anywhere I go, there you are
C/G            G 
There you are, 
          D
there you are


[Chorus]

Em         C/G          G
You're the fire and the flood
             Em       C/G   G
And I always feel you in my blood
              Em        C/G                 G             D
Everything is fine when your head's resting next to mine, next to mine
Em         C/G            G      D
You're the fire and the flood


[Break]
Em C G D
Em C G D


[Bridge]

             C      D   Em
"Now, listen here," she said
                C     D     G
"Boy, when you know, you'll know"
    D
And I know


[Chorus]

Em         C/G          G
You're the fire and the flood
             Em       C/G   G
And I always feel you in my blood
              Em        C/G                 G             D
Everything is fine when your head's resting next to mine, next to mine
Em         C/G            G      D
You're the fire and the flood


       ------------------------------------------------------------------
     VIDEO TUTORIAL ON THIS SONG - https://www.youtube.com/watch?v=L7j7I17c9Mg
       ------------------------------------------------------------------
Suggest correction
Creating personal tab
Creating personal tab
You can edit any tab online and save it as your Personal.

You can edit, replace or remove any tab part or add personal notes – all changes will be seen only by you.

Personal tabs can be accessed anytime from any device, even offline.
Learn more »
comments
print report bad tab
2 comments total.
0 reply
brettcadamson 2,984 Mar 11, 2016 05:33 PM

G'day Dave, thank you so much for your tab. Check Vance playing live, link below - I think you can see the second chord is actually C/G. He keeps his thumb going on the 6th string and covers at the 3rd fret. So I think it's really like this:

d|-----------------|-----------------|
A|-----------------|-----------------|
F|----0-----0------|----0-----0------|
C|-2-----2-----2---|-2-----2-----2---|
A|-----------------|-----------------|
D|-3-3-3-3-3-3-3-3-|-3-3-3-3-3-3-3---|

Have a try, see what you think.

https://www.youtube.com/watch?v=6L4gyYoDeL8

guest
You may want to rate the tab now too:
select rating
Wanna post a correction for this tab? Suggest correction