Oops, an error
Loading. Please wait.

Fire And The Flood chords

version 4
version 4

Whole song

  • The correct version that Vance Joy plays himself live.
  • Formatted for 2 printed sheets songbook style, tablature embedded in lyric sheet.

Video

2,632 views 48 this week
1 commentread comment
1 2 3 4 5
x 8
add to favorites
×
Save as Personal and add changes to this tab that will be seen only by you. Learn more ›
×
You can save this tab as Personal to edit and correct it or add notes. All changes will be seen only by you. Learn more »
launch autoscroll
font size
0
reset
transpose
0
reset
simplify chords
display chords
guitar tuner
edit
Autoscroll
slow
fast
+/-
esc
set tempo
stop
About this tab version
Formatted for 2 printed sheets songbook style, tablature embedded in lyric sheet. Was this info helpful? Yes No
Strumming
There is no strumming pattern for this song yet. and get +5 IQ
Vance Joy - Fire And The Flood
  D standard tuning, low to high = D G C F A D  (tune down whole step)
Intro  
  G               |                ||x2
d-----------------|----------------|
A-----------------|----------------|
F----0-----0------|---0-----0------|
C-0-----0-----0---|0-----0-----0---|
G-----------------|----------------|
D-3-3-3-3-3-3-3-3-|3-3-3-3-3-3-3-0-|

Verse 1
G
I was only walking through your neighbourhood
 G
Saw your light on, honey; in the cold I stood

 C/G             |                |G               |                |             
-----------------|----------------|----------------|----------------|
-----------------|----------------|----------------|----------------|
----0-----0------|---0-----0------|---0-----0------|---0-----0------|
-2-----2-----2---|2-----2-----2---|0-----0-----0---|0-----0-----0---|
-----------------|----------------|----------------|----------------|
-3-3-3-3-3-3-3-3-|3-3-3-3-3-3-3-0-|3-3-3-3-3-3-3-3-|3-3-3-3-3-3-3-0-|
Anywhere I go there you are,        anywhere I go there you are
 G                                          
I' been getting used to waking up with you, I' been getting used to waking up here
C/G                          G
Anywhere I go there you are, anywhere I go there you are
 
C/G              |G               |D               |                |
-----------------|----------------|----------------|----------------|
-----------------|----------------|----------------|----------------|
----0-----0------|---0-----0------|---0-----0------|---0-----0------|
-2-----2-----2---|0-----0-----0---|4-----4-----4---|4-----4-----4---|
-----------------|----------------|5-5-5-5-5-5-5-5-|5-5-5-5-5-5-5-5-|
-3-3-3-3-3-3-3-3-|3-3-3-3-3-3-3-0-|----------------|----------------|
     There you are,   there you are

Chorus
 Em              |C/G             |G               |                |
-----------------|----------------|----------------|----------------|
-----------------|----------------|----------------|----------------|
----0-----0------|---0-----0------|---0-----0------|---0-----0------|
-2-----2-----2---|2-----2-----2---|0-----0-----0---|0-----0-----0---|
-----------------|----------------|----------------|----------------|
-0-0-0-0-0-0-0-0-|3-3-3-3-3-3-3-0-|3-3-3-3-3-3-3-3-|3-3-3-3-3-3-3-0-|
You're    the    fire     and the  flood
             Em       C/G     G
And I always feel you in my blood

        Em               |C/G             |G               |D               |
        -----------------|----------------|----------------|----------------|
        -----------------|----------------|----------------|----------------|
        ----0-----0------|---0-----0------|---0-----0------|---0-----0------|
        -2-----2-----2---|2-----2-----2---|0-----0-----0---|4-----4-----4---|
        -----------------|----------------|----------------|5-5-5-5-5-5-5-5-|
        -0-0-0-0-0-0-0-0-|3-3-3-3-3-3-3-3-|3-3-3-3-3-3-3-0-|----------------|
Everything is fine when your head's resting next to mine, next to mine
Em         C/G            G      D
You're the fire and the flood

Interlude  Em   |C/G  |G    |D    ||x2
        ahwoo   oo    oooh

Verse 2
 G
Since we met I feel a lightness in my step, you're miles away but I still feel you
C/G                                     G
Anywhere I go there you are (anywhere), anywhere I go there you are
G
Late at night when you can't fall asleep
G
I'll be lying right beside you counting sheep
C/G                                     G
Anywhere I go there you are (anywhere), anywhere I go there you are
C/G        G              D
 There you are, there you are

Chorus
Em         C/G            G                 Em      C/G     G
You're the fire and the flood and I always feel you in my blood
              Em        C/G                  G             D
Everything is fine when your head's resting next to mine, next to mine
Em         C/G            G      D
You're the fire and the flood


Interlude  Em   |C/G  |G    |D    ||x2
        ahwoo    oo   oooh

Bridge
          C       D      Em|                |C       D      G |                |
         ------------------|----------------|-----------------|----------------|
         ------------------|----------------|-----------------|----------------|
         -0-------0------0-|----------------|0-------0------0-|----------------|
         -2-------4------5-|----------------|2-------4------0-|----------------|
         -3-------5------7-|----------------|3-------5--------|----------------|
         ------------------|----------------|---------------3-|----------------|
"Now, listen here," she said, "Boy, when you know, you'll know"

      D               |                |                |                 |
     -----------------|----------------|----------------|-----------------|
     -----------------|----------------|----------------|-----------------|
     ----0-----0------|---0-----0------|---0-----0------|-----------------|
     -4-----4-----4---|4-----4-----4---|4-----4-----4---|4----------------|
     -5-5-5-5-5-5-5-5-|5-5-5-5-5-5-5-5-|5-5-5-5-5-5-5-5-|5----------------|
     -----------------|----------------|----------------|-----------------|
And I   know,                                 mm,       oh oh

Chorus
Em         C/G            G                 Em      C/G     G
You're the fire and the flood and I always feel you in my blood
              Em        C/G                  G             D
Everything is fine when your head's resting next to mine, next to mine
Em         C/G            G      D     Em
You're the fire and the flood

            
            
Suggest correction
Creating personal tab
Creating personal tab
You can edit any tab online and save it as your Personal.

You can edit, replace or remove any tab part or add personal notes – all changes will be seen only by you.

Personal tabs can be accessed anytime from any device, even offline.
Learn more »
comments
print report bad tab
1 comment total.
+1 reply
P_Trik 5,928 May 19, 2016 06:44 PM

Credit to Davetran's version 3 for the correct tuning and great tablature. This is formatted for printing on two pages songbook style for ease of learning

guest
You may want to rate the tab now too:
select rating
Wanna post a correction for this tab? Suggest correction