Oops, an error
Loading. Please wait.

Georgia Bass Tab

version 1
version 1

Whole song

Interactive

31 views 1 this week
no commentswrite comment
1 2 3 4 5
3 more votes to show rating
add to favorites
launch autoscroll
font size
0
reset
guitar tuner
Autoscroll
slow
fast
+/-
esc
set tempo
stop
Help us to improve Ultimate-Guitar.com Take our survey!
×
Author
Difficulty
novice
[Intro]

G|---------------------------------------------------------------------------|
D|----6-----6-----6--------------------4------4------4-----------------------|
A|-------------------------6---7---7------------------------6-----7-----7----|   x2
E|---------------------------------------------------------------------------|



[Verse]


G|---------------------------------------------------------------------------|
D|----6-----6-----6--------------------4------4------4-----------------------|
A|-------------------------6---7---7------------------------6-----7-----7----|   x2
E|---------------------------------------------------------------------------|

G|---------------------------------------------------------------------------|
D|---------------------------------------------------------------------------|
A|---7---------7--------7--------9----------9----------9---------------------|
E|---------------------------------------------------------------------------|


[Chorus]

G|---------------------------------------------------------------------------|
D|--6---6---6---4---4---4----------------------------------------------------|
A|--------------------------------------7---7---7----------------------------|      x3
E|--------------------------7---7---7----------------------------------------|



G|---------------------------------------------------------------------------|
D|--6---6---6---4---4---4----------------------------------------------------|
A|--------------------------------------7~~~~~~~~----------------------------|
E|--------------------------7---7---7----------------------------------------|





[Bridge]

G|---------------------------------------------------------------------------|
D|---------------------------------------9~~~~-------------------------------|
A|------7~~~------9~~~-------11~~~-------------------------------------------|
E|---------------------------------------------------------------------------|



[Chorus]+[Outro]

G|---------------------------------------------------------------------------|
D|--6---6---6---4---4---4----------------------------------------------------|
A|--------------------------------------7---7---7----------------------------|      x5
E|--------------------------7---7---7----------------------------------------|

G|---------------------------------------------------------------------------|
D|--6---6---6---4---4---4----------------------------------------------------|
A|--------------------------------------7~~~~~~~~----------------------------|
E|--------------------------7---7---7----------------------------------------|




************************************

| ~   Vibrato

************************************
Suggest correction
Give kudos to tab author, rate the tab!
1 2 3 4 5
comments
print report bad tab
guest
You may want to rate the tab now too:
select rating
Wanna post a correction for this tab? Suggest correction