Oops, an error
Loading. Please wait.

Mess Is Mine tab

version 3
version 3
3,926 views 1 this week
1 commentread comment
1 2 3 4 5
x 3
add to favorites
×
Save as Personal and add changes to this tab that will be seen only by you. Learn more ›
×
You can save this tab as Personal to edit and correct it or add notes. All changes will be seen only by you. Learn more »
launch autoscroll
font size
0
reset
how to read this tab
guitar tuner
edit
Autoscroll
slow
fast
+/-
esc
set tempo
stop
Author
-------------------------------------------------------------------------------
                             SONG NAME - Band Name
-------------------------------------------------------------------------------
Tabbed by:
E-mail:

Tuning:
                                      (playing 1st string here is optional)
e|-------------------------------------0--------------------|
B|----8----5-5----0-------0-------0----1-1----0-------0-----|
G|-0----0-----------0-------0-------0-----------0-------0---|
D|----------------------------------------------------------|
A|---------3---------------------------3--------------------|
E|-0-0-0-0-----3-3-3-3-3-3-3-3-0-0-0-0-----3-3-3-3-3-3-3-3--|

Can also be played
e|----3--------------------------------0-------------------------------------|
B|---------5-5----0-------0-------0----1-1----0-------0----------------------|
G|-0----0-----------0-------0-------0-----------0-------0--------------------|
D|---------------------------------------------------------------------------|
A|---------3---------------------------3-------------------------------------|
E|-0-0-0-0-----3-3-3-3-3-3-3-3-0-0-0-0-----3-3-3-3-3-3-3-3-------------------|

            
            
Suggest correction
Creating personal tab
Creating personal tab
You can edit any tab online and save it as your Personal.

You can edit, replace or remove any tab part or add personal notes – all changes will be seen only by you.

Personal tabs can be accessed anytime from any device, even offline.
Learn more »
Give kudos to tab author, rate the tab!
1 2 3 4 5
comments
print report bad tab
1 comment total.
0 reply
ThorHammer17 498 May 10, 2015 06:21 AM

This is a pretty solid tab. The only thing I find wrong with it is that there are too many notes in the bass line; there's a lot more going on with this song in the rhythm than are in this tab.

If you want a live video of Vance to see how he plays it, the first fifteen seconds of this one were excellent.

https://www.youtube.com/watch?v=oUtuA00gIrg

guest
You may want to rate the tab now too:
select rating
Wanna post a correction for this tab? Suggest correction