Oops, an error
Loading. Please wait.

A Thousand Miles bass

version 1
version 1

Whole song

21,788 views 21 this week
no commentswrite comment
1 2 3 4 5
x 3
add to favorites
×
Save as Personal and add changes to this tab that will be seen only by you. Learn more ›
×
You can save this tab as Personal to edit and correct it or add notes. All changes will be seen only by you. Learn more »
launch autoscroll
font size
0
reset
guitar tuner
edit
Autoscroll
slow
fast
+/-
esc
set tempo
stop
Author
+++++++++++++++++++++++++++++++++++++
| Vanessa Carlton- A Thousand Miles |
+++++++++++++++++++++++++++++++++++++

Tuning: EADG

Verse
"Faces pass and I'm home bound..."
1.
G|-----------------------------|
D|-----------------------------|
A|-7~--9~--6~----7~--9~--6~----|
E|-----------------------------|

"Staring blankly ahead just making my way..."
2.
G|---------------------------------------------------------------------|
D|---------------------------------------------------------------------|
A|-7~-9x----6~-7x----7~-9x----6~-7x----7~-9~-6~--7~----7~-9~-6~--7~----|
E|---------------------------------------------------------------------|

Pre-Chorus
"And I need you, And I miss you..."
3.
G|-------------------------------------------------|
D|-------1x----------1x----------1x----2~----4~----|
A|-------------------------------------------------|
E|-0~-2~-------0~-2~-------0~-2~-------------------|

Chorus
"If I could fall into the sky..."
4.
G|-------------------------------------------------------------------------|
D|-------------1-1-1-2-2-2-------------1-1-1-2-2-2-------------1-1-1-2-2-2-|
A|-------------------------------------------------------------------------|
E|-0-0-0-2-2-2-------------0-0-0-2-2-2-------------0-0-0-2-2-2-------------|

"If I could just see you...tonight..."
5.
G|-----------------------|
D|-6~----8~----4~--------|
A|-----------------------|
E|-----------------------|

Outro
6.
G|-----------------------------|
D|-------1~--2~--------1~--2~--|
A|-----------------------------|
E|-0~-2~---------0~-2~---------|

Verse
"Its always times like these..."
7.
G|---------------------------------------------------------------------|
D|---------------------------------------------------------------------|
A|-7~-9x----6~-7x----7~-9x----6~-7x----7~-9~-6~--7~----7~-9~-6~--7~----|
E|---------------------------------------------------------------------|

Pre-Chorus
"'Cause I need you, And I miss you..."
8.
G|-------------------------------------------------|
D|-------1x----------1x----------1x----2~----4~----|
A|-------------------------------------------------|
E|-0~-2~-------0~-2~-------0~-2~-------------------|

Chorus
"If I could fall into the sky..."
9.
G|-------------------------------------------------------------------------|
D|-------------1-1-1-2-2-2-------------1-1-1-2-2-2-------------1-1-1-2-2-2-|
A|-------------------------------------------------------------------------|
E|-0-0-0-2-2-2-------------0-0-0-2-2-2-------------0-0-0-2-2-2-------------|

"If I could just see you...tonight..."
10.
G|-----------------------|
D|-6~----8~----4~--------|
A|-----------------------|
E|-----------------------|

Outro
11.
G|------------------------------------------------------|
D|------------------------------------------------------|
A|-7~-9~-6~--7~--7~-9~-8~--7~--7~-9~-6~-7~--7~-9~-6~-7~-|
E|------------------------------------------------------|

Bridge
"I, I, dont wanna let you no..."
12.
G|-1-1-1-3-3-3-4-4-4-6-6-6-1-1-1-3-3-3-4-4-4-6-6-6-1-1-1-3-3-3-4-4-4-6-6-6-1-1-1-3-3-------|
D|-----------------------------------------------------------------------------------4~----|
A|-----------------------------------------------------------------------------------------|
E|-----------------------------------------------------------------------------------------|

Verse
"Making my way downtown, walking fast..."
13.
G|-----------------------------------------------------------------|
D|-----------------------------------------------------------------|
A|-7~-9x----6~-7x----7~-9x----6~-7x----7~-9~-6~------7~-9~-6~------|
E|-----------------------------------------------------------------|

"Staring blankly ahead just making my way..."
14.
G|---------------------------------------------------------------------|
D|---------------------------------------------------------------------|
A|----9x----6~-7x----7~-9x----6~-7x----7~-9~-6~--7~----7~-9~-6~--7~----|
E|-0~------------------------------------------------------------------|

Pre-Chorus
"And I still need you, And I still miss you..."
15.
G|-------------------------------------------------|
D|-------1x----------1x----------1x----2~----4~----|
A|-------------------------------------------------|
E|-0~-2~-------0~-2~-------0~-2~-------------------|

"'Cause you know I'd walk a thousand miles if I could just see you..."
16
G|--------9h11p9~--9-11~--11-8~--8-9~--9------------------------|
D|---------------------------------------6~--8~--4~----4444-----|
A|-7-9-11-------------------------------------------------------|
E|---------------------------------------------------------2222-|

Chorus
"If I could fall into the sky..."
17.
G|-------------------------------------------------------------------------|
D|-------------1-1-1-2-2-2-------------1-1-1-2-2-2-------------1-1-1-2-2-2-|
A|-------------------------------------------------------------------------|
E|-0-0-0-2-2-2-------------0-0-0-2-2-2-------------0-0-0-2-2-2-------------|

"If I could just see you...tonight..."
18.
G|-----------------------|
D|-6~----8~----4~--------|
A|-----------------------|
E|-----------------------|

Lyrics:

Making my way downtown, walking fast
Faces pass and I'm home bound
Staring blankly ahead just making my way
Making my way through the crowd

And I need you, and I miss you
And now I wonder....

If I could fall into the sky
Do you think time would pass me by
'Cause you know I'd walk a thousand miles
If I could just see you tonight

It's always times like these when I think of you
And I wonder if you ever think of me
'Cause everything's so wrong and I don't belong
Living in your precious memories

'Cause I need you
And I miss you
And now I wonder....

And I, I don't want to let you know
I, I drown in your memory
I, I don't want to let this go
I, I don't....

And I still need you
And I still miss you
And now I wonder....

If I could
Just hold you
Tonight 

+++++++++++++++++++++++++++++++++
| RaiLeff                       |
| Underground__Dora@Hotmail.Com |
+++++++++++++++++++++++++++++++++

            
            
Suggest correction
Creating personal tab
Creating personal tab
You can edit any tab online and save it as your Personal.

You can edit, replace or remove any tab part or add personal notes – all changes will be seen only by you.

Personal tabs can be accessed anytime from any device, even offline.
Learn more »
Give kudos to tab author, rate the tab!
1 2 3 4 5
comments
print report bad tab
guest
You may want to rate the tab now too:
select rating
Wanna post a correction for this tab? Suggest correction