Oops, an error
Loading. Please wait.

Thousand Miles Tab

version 1
version 1

Whole song

216,115 views 204 this week
6 commentsread comments
1 2 3 4 5
x 28
add to favorites
×
Save as Personal and add changes to this tab that will be seen only by you. Learn more ›
×
You can save this tab as Personal to edit and correct it or add notes. All changes will be seen only by you. Learn more »
save as personal
new!
launch autoscroll
font size
0
reset
how to read this tab
guitar tuner
Autoscroll
slow
fast
+/-
esc
set tempo
stop
Song: A Thousand Miles
Artist: Vanessa Carlton
Transcribed by: Chris Berry


e|------19-----19--18-----18----------------------------19----19--18----18-----------------------------------|
B|-----------------------------19--------16----------------------------------19----19----19------16-17-16----|
G|--16-----16---------16--------------------18--16---------16--------16---------16----16----16------------16-|
D|-----------------------------------------------------------------------------------------------------------|
A|-----------------------------------------------------------------------------------------------------------|
E|-----------------------------------------------------------------------------------------------------------|


e|------19-----19--18-----18---------------------------------------------------------------------------------|
B|-----------------------------19--------16--------------16-------16----------19-----------------------------|
G|--16-----16---------16--------------------18--16----------18-16----18-16-----------16----------------------|
D|-----------------------------------------------------------------------------------------------------------|
A|-----------------------------------------------------------------------------------------------------------|
E|-----------------------------------------------------------------------------------------------------------|

"Making my way downtown..."

e|--7-6------------7-6------------------7---7--6---6----------------------------|
B|---------7-5-------------7-5--------------------------7---7---7-----4-5-4-----|
G|--4-4----4-4-----4-4-----4-4--------4---4------4--------4---4---4---------4---|
D|------------------------------------------------------------------------------|
A|------------------------------------------------------------------------------|
E|------------------------------------------------------------------------------|

e|--7---7--6---6---------------------------|
B|-------------------7---7---7-----4-5-4---|
G|-----4------4--------4---4---4---------4-|
D|-----------------------------------------|
A|-----------------------------------------|
E|-----------------------------------------|


 "Staring blankly ahead.."

e|--7-6------------7-6------------------7---7--6---6----------------------------|
B|---------7-5-------------7-5--------------------------7---7---7-----4-5-4-----|
G|--4-4----4-4-----4-4-----4-4--------4---4------4--------4---4---4---------4---|
D|------------------------------------------------------------------------------|
A|------------------------------------------------------------------------------|
E|------------------------------------------------------------------------------|

e|--7---7--6---6---------------------------|
B|-------------------7---7---7-----4-5-4---|
G|-----4------4--------4---4---4---------4-|
D|-----------------------------------------|
A|-----------------------------------------|
E|-----------------------------------------|

                      "and I need you.."                   "And i miss you.."
e|-----------------------------------------------------------------------------------------------------------|
B|--0-0-0---4-4-4--2---------------------0-0-0---4-4-4--2-----------------------0-0-0---4-4-4--2-------------|
G|--4-4-4---4-4-4--4---------------------4-4-4---4-4-4--4-----------------------4-4-4---4-4-4--4---------4--3|
D|-----------------------------------------------------------------------------------------------------------|
A|-----------------------------------------------------------------------------------------------------------|
E|-----------------------------------------------------------------------------------------------------------|
             x12 "If I could just, see, you.."
E------------|-------------------7---11----9-------------------|
B--------19--|-------------------------------------------------|
G--15-16-----|-------------------4----8----6-------------------|
D------------|-------------------------------------------------|
A------------|-------------------------------------------------|
E------------|-------------------------------------------------|
                                                                                            
e|---------7---7--6---6--------------------------------7---7--6---6--------------------------|
B|--------------------------7---7---7-----4-5-4------------------------7---7---7-----4-5-4---|
G|-------4---4------4---------4---4---4---------4--------4------4--------4---4---4---------4-|
D|-------------------------------------------------------------------------------------------|
A|-------------------------------------------------------------------------------------------|
E|-------------------------------------------------------------------------------------------|(x2)

 "Its always times like these.."

e|--7-6------------7-6------------------7---7--6---6---------------------------|
B|---------7-5-------------7-5--------------------------7---7---7-----4-5-4----|
G|--4-4----4-4-----4-4-----4-4--------4---4------4--------4---4---4---------4--|
D|-----------------------------------------------------------------------------|
A|-----------------------------------------------------------------------------|
E|-----------------------------------------------------------------------------|

e|---7---7--6---6---------------------------|
B|--------------------7---7---7-----4-5-4---|
G|------4------4--------4---4---4---------4-|
D|------------------------------------------|
A|------------------------------------------|
E|------------------------------------------|


e|--7-6------------7-6------------------7---7--6---6----------------------------|
B|---------7-5-------------7-5--------------------------7---7---7-----4-5-4-----|
G|--4-4----4-4-----4-4-----4-4--------4---4------4--------4---4---4---------4---|
D|------------------------------------------------------------------------------|
A|------------------------------------------------------------------------------|
E|------------------------------------------------------------------------------|

e|--7---7--6---6---------------------------|
B|-------------------7---7---7-----4-5-4---|
G|-----4------4--------4---4---4---------4-|
D|-----------------------------------------|
A|-----------------------------------------|
E|-----------------------------------------|


                  "Cause i'll need you.."                  "and i'll miss you.."
e|-----------------------------------------------------------------------------------------------------------|
B|--0-0-0---4-4-4--2---------------------0-0-0---4-4-4--2-----------------------0-0-0---4-4-4--2-------------|
G|--4-4-4---4-4-4--4---------------------4-4-4---4-4-4--4-----------------------4-4-4---4-4-4--4---------4--3|
D|-----------------------------------------------------------------------------------------------------------|
A|-----------------------------------------------------------------------------------------------------------|
E|-----------------------------------------------------------------------------------------------------------|

              x12 "If I could just, see, you..tonight"
e|------------|-------------------7---11----9-------------------|
B|--------19--|-------------------------------------------------|
G|--15-16-----|-------------------4----8----6-------------------|
D|------------|-------------------------------------------------|
A|------------|-------------------------------------------------|
E|------------|-------------------------------------------------|

e|----7---7--6---6----------------------------------7---7--6---6----------------------------|
B|-------------------7---7---7-----4-5-4---------------------------7---7---7-----4-5-4------|
G|--4---4------4-------4---4---4---------4--------4----4-----4-------4---4---4---------4----|
D|------------------------------------------------------------------------------------------|
A|------------------------------------------------------------------------------------------|
E|------------------------------------------------------------------------------------------|

e|----7---7--6---6------------------------------------------------------------|
B|-------------------7---7---7-----4-5-4-----4------4-------7---------4-------|
G|--4---4------4-------4---4---4---------4-----6-4----6-4--------6--6---6-4---|
D|----------------------------------------------------------------------------|
A|----------------------------------------------------------------------------|
E|----------------------------------------------------------------------------|

Just listen to the rest and find corresponding part...it just repeats...

************************************

| x  Dead note

************************************
Suggest correction
comments
print report bad tab
6 comments total. Showing first comments.
0 reply
Bjeck 10 Jul 23, 2006 12:33 AM

nice

+4 reply
bJoelFan13 226 Dec 05, 2006 12:05 PM

very hard to do tho

+2 reply
bittahsweet 21 Mar 15, 2008 06:36 AM

Great tab.

And yes, it does seem a bit difficult to play. Then again, it's meant for the piano. xD

guest
Wanna post a correction for this tab? Suggest correction