Oops, an error
Loading. Please wait.

Say Ok tab

version 1
version 1

Whole song

9,978 views 3 this week
2 commentsread comments
1 2 3 4 5
x 7
add to favorites
×
Save as Personal and add changes to this tab that will be seen only by you. Learn more ›
×
You can save this tab as Personal to edit and correct it or add notes. All changes will be seen only by you. Learn more »
launch autoscroll
font size
0
reset
how to read this tab
guitar tuner
edit
Autoscroll
slow
fast
+/-
esc
set tempo
stop
Intro:
part one  e-11--------11--------11--------11--------|
          b----12--------12--------12--------12-----|
          g-------13--------13--------13--------13--|
          d-----------------------------------------|
          a-----------------------------------------|
          e-----------------------------------------|

part two  e-10--------10--------10--------10--------|
          b----12--------12--------12--------12-----|
          g-------12--------12--------12--------12--|
          d-----------------------------------------|
          a-----------------------------------------|
          e-----------------------------------------|


Verse one is a repeat of the intro until "but I don't wanna be into you, if you're not 
for true love", which goes:

e-13--------13--------13--------13--------|
b----15--------15--------15--------15-----|
g-------14--------14--------14--------14--|  Then you play pt. 1, then repeat
d-----------------------------------------|
a-----------------------------------------|
e-----------------------------------------|

Chorus
                        Am
When it's not alright

When it's not ok        C
         G           D
Will you try to make me feel better

We say alright          Am

We say ok              C

          G             D
Will you stick with me through whatever

G            D
Or run away, Say ok

That's the best I could do for now. I think it's a very accurate tab because I listened 
the CD while I figured out the tab. Cya L8er!!Ciao!!Adios!!Bye!!Ok im done.
Suggest correction
Creating personal tab
Creating personal tab
You can edit any tab online and save it as your Personal.

You can edit, replace or remove any tab part or add personal notes – all changes will be seen only by you.

Personal tabs can be accessed anytime from any device, even offline.
Learn more »
comments
print report bad tab
2 comments total.
+1 reply
Kageta 10 Apr 05, 2007 08:49 AM

Wow dude.
Intro's very accurate.
I haven't played it with the song yet but I've heard it a billion times though.
5 stars.

+5 reply
xMaxie77 94 Sep 15, 2007 10:20 AM

Part 1 in the intro should be
e-12--------12--------12--------12--------|
b----13--------13--------13--------13-----|
g-------14--------14--------14--------14--|
d-----------------------------------------|
a-----------------------------------------|
e-----------------------------------------|

guest
Wanna post a correction for this tab? Suggest correction