Oops, an error
Loading. Please wait.

Chariots Of Fire tab

version 3
version 3

Whole song

Interactive

18,768 views 6 this week
no commentswrite comment
1 2 3 4 5
x 4
add to favorites
×
Save as Personal and add changes to this tab that will be seen only by you. Learn more ›
×
You can save this tab as Personal to edit and correct it or add notes. All changes will be seen only by you. Learn more »
launch autoscroll
font size
0
reset
how to read this tab
guitar tuner
edit
Autoscroll
slow
fast
+/-
esc
set tempo
stop
Author
Difficulty
chariots of Fire:
Basic Notes

You know, I looked all over and couldn't find a decent complete tab on this
great song, even with just the basic notes. So I got the piano music and was
able to come up with this simple version.


[Intro]

E|--------------------------------------------------------------------------|
B|---9---9---9-----7--------------------------------------------------------|
G|-6---6---6---6-6----------------------------------------------------------|
D|-------------------6-6----------------------------------------------------|
A|--------------------------------------------------------------------------|
E|--------------------------------------------------------------------------|


[Part 1]

E|--------------------------------------------------------------------------|
B|---7-9-11-9-6----7-9-11-9----7-9-11-9-6--6-7-6----------------------------|
G|-6-------------6-----------6-------------------6-6------------------------|
D|--------------------------------------------------------------------------|
A|--------------------------------------------------------------------------|
E|--------------------------------------------------------------------------|


[Part 2]

E|-9-8-6---8---6-----9-8-6---8-6---9-8-6---8---6-------6--------------------|
B|-------9---9---7-9-------9-----6-------9---9---7-9-6---6------------------|
G|---------------------------------------------------------6-6--------------|
D|--------------------------------------------------------------------------|
A|--------------------------------------------------------------------------|
E|--------------------------------------------------------------------------|


[Ending]

E|--------------9-8-6---------6-9-------------------------------------------|
B|--7-9-11-6----------9-6-6-9-------9-6---6---9-6-------9-6-------9-6-------|
G|-6---------6--------------------6-----6---6-----6-6-6-----6-6-6-----6-6-6-|
D|--------------------------------------------------------------------------|
A|--------------------------------------------------------------------------|
E|--------------------------------------------------------------------------|

It goes as so:
[Intro]
[Part 1] (x2)
[Part 2] (x2)
[Part 1] (x2)
[Part 2] (x2)
[Ending]

As far as the timing goes, I recommend that you search the internet and download the 
then play along with it. I hope to record the guitar solo for this someday and post
it on website, I'll let y'all know when that happens. Till then, email me at
caminar_con_dios@hotmail.com if you have any questions.

Enjoy!
Suggest correction
Creating personal tab
Creating personal tab
You can edit any tab online and save it as your Personal.

You can edit, replace or remove any tab part or add personal notes – all changes will be seen only by you.

Personal tabs can be accessed anytime from any device, even offline.
Learn more »
comments
print report bad tab
guest
You may want to rate the tab now too:
select rating
Wanna post a correction for this tab? Suggest correction