Oops, an error
Loading. Please wait.

Ice Ice Baby tab

version 2
version 2

Whole song

Interactive

33,878 views 99 this week
2 commentsread comments
1 2 3 4 5
x 6
add to favorites
×
Save as Personal and add changes to this tab that will be seen only by you. Learn more ›
×
You can save this tab as Personal to edit and correct it or add notes. All changes will be seen only by you. Learn more »
launch autoscroll
font size
0
reset
how to read this tab
guitar tuner
backing track
0:00
0:00
edit
Autoscroll
slow
fast
+/-
esc
set tempo
stop
Author
Unregistered
[Intro & Chorus:]
e----------------------------------------------------------|
B----------------------------------------------------------|
G----------------------------------------------------------|
D----------------------------------------------------------|
A--5-5-5-5555-0--5-5-5-5555-0--5-5-5-5555-0--5-5-5-5555-0--|
E----------------------------------------------------------|
Play along w/ the song to see how many times to play it for both parts.

[Verse]
e----------------------------------------------------------|
B----------------------------------------------------------|
G----------------------------------------------------------|
D---------5~3-5-3------------------5~3-5-3-----------------|
A--5~5-7-5-------5~3-5-3----5~5-7-5-------5~3-5-3----------|
E-----------------------3~-----------------------3~--------|

     ~ = hold note, and let it ring

            
            
Suggest correction
Creating personal tab
Creating personal tab
You can edit any tab online and save it as your Personal.

You can edit, replace or remove any tab part or add personal notes – all changes will be seen only by you.

Personal tabs can be accessed anytime from any device, even offline.
Learn more »
comments
print report bad tab
2 comments total.
0 reply
fallinsuburbia 50 Jan 09, 2006 05:43 PM

Dude good tab. But Vanilla Ice stole this from Queen and David Bowie. and then Bert McCracken and Gerard Way had to redo Under Pressure and ruin it. then Korn an some other band redid Ice ice Baby so it all evens out. Ya know if there was no Vanilla Ice there would have been no such thing as Eminem. Just a thought.

0 reply
ripper8poczta 10 Aug 31, 2014 05:08 AM

There is a mistake in "Intro & Chorus"
there is:

A--5-5-5-5555-0--5-5-5-5555-0--5-5-5-5555-0--5-5-5-5555-0--|

should be:
A--5-5-5-5550--5-5-5-5550--5-5-5-5550--5-5-5-5550--|

guest
Wanna post a correction for this tab? Suggest correction