Oops, an error
Loading. Please wait.

Nothing Is Real Tab

16 views 1 this week
no commentswrite comment
1 2 3 4 5
3 more votes to show rating
add to favorites
launch autoscroll
font size
0
reset
how to read this tab
guitar tuner
Autoscroll
slow
fast
+/-
esc
set tempo
stop
Help us to improve Ultimate-Guitar.com Take our survey!
×
Author
Difficulty
Tuning
novice
C G C F A D
----------------------------------------------------------------------------------------------
SONG: Nothing Is Real
BAND: Vanilla Ice
ALBUM: Skabz
----------------------------------------------------------------------------------------------

TUNING: Drop D and down 1 step (C G C F A D)

Riff 1:
D|-------|-------|
A|-------|-------|
F|-------|-------|
C|-0--0--|-1--0--|
G|-0--0--|-1--0--|
C|-0--0--|-1--0--|
PM-  -    -  -

Riff 2:
D|----------------------------|
A|----------------------------|
F|-3-3-3----------------------|
C|-3-3-3-2-2-2-1--1-1-1/2-2-2-|
G|-1-1-1-2-2-2-1--1-1-1/2-2-2-|
C|-------2-2-2-1--1-1-1/2-2-2-|

Riff 3:
D|-------------------------------------------------|
A|-------------------------------------------------|
F|-8-8-8-8-8-8-8-8-6-6-6-6-6-6-6-6-----------------|
C|-x-x-x-x-x-x-x-x-x-x-x-x-x-x-x-x-7-7-7-7-7-7-7-7-|
G|-6-6-6-6-6-6-6-6-4-4-4-4-4-4-4-4-x-x-x-x-x-x-x-x-|
C|---------------------------------7-7-7-7-7-7-7-7-|

Riff 4:
D|---------------|
A|---------------|
F|---------------|
C|-0-0-0-1-0-0-0-|
G|-0-0-0-1-0-0-0-|
C|-0-0-0-1-0-0-0-|

Riff 5:
D|-----------------------------|
A|-----------------------------|
F|-----------------------------|
C|-0-1--0-1--0-1--0-1--0-1-1-1-|
G|-0-1--0-1--0-1--0-1--0-1-1-1-|
C|-0-1--0-1--0-1--0-1--0-1-1-1-|
Suggest correction
Give kudos to tab author, rate the tab!
1 2 3 4 5
comments
print report bad tab
guest
You may want to rate the tab now too:
select rating
Wanna post a correction for this tab? Suggest correction