Oops, an error
Loading. Please wait.

Waiting Patiently Bass Tab

437 views 1 this week
no commentswrite comment
1 2 3 4 5
3 more votes to show rating
add to favorites
launch autoscroll
font size
0
reset
guitar tuner
Autoscroll
slow
fast
+/-
esc
set tempo
stop
Help us to improve Ultimate-Guitar.com Take our survey!
×
Author
Band: Vanilla sky
Album: changes
Song: waiting patiently

I apologise because the timing 
isn’t done correctly but hopefully
all the notes are correct

comments and corrections are very welcome

Please Rate

Verse 0:16
		X3
G|-----|---11--------------------------|
D|-14\-|------9-11---11-12-------------| 
A|-----|-9-----------------------------|
E|-----|-------------------------------|

Pre-chorus 0:30

G|-14-------14-------14-------14-------|
D|----14-14----14-14----14-14----14-14-|
A|-------------------------------------|
E|-------------------------------------|

Chorus 0:34	
			
G|--------------------------------------------------|
D|--------------------------------------------------|
A|-5----5-55---5----5-55-------------------------4--|
E|-------------------------2-----2-----5-5-5-5-7----|

G|---------------------------------------------------|
D|---------------------------------------------------|
A|-5----5-55---5----5-55-------------------------4-5~|
E|-------------------------2-----2-----5-5-5-5-7-----|

	
Verse 2 0:54

			X3
G|-----|---11---------------------------|
D|-14\-|------9-11---11-12---1211/12-12-|
A|-----|-9------------------------------|
E|-----|--------------------------------|

G|-14-------14-------14-------14-------|
D|----14-14----14-14----14-14----14-14-|
A|-------------------------------------|
E|-------------------------------------|

G|----11---------------------------|
D|-------9-11---11-12---1211/12-12-|
A|--9------------------------------| x3
E|---------------------------------|

Pre-chorus 1:26

G|-14-------16-------18-------16--------|
D|----14-14----14-14----14-14----14-14--|
A|--------------------------------------|
E|--------------------------------------|

Chorus 1:28

G|--------------------------------------------------|
D|--------------------------------------------------|
A|-5----5-55---5----5-55-------------------------4--| x2
E|-------------------------2-----2-----5-5-5-5-7----|

Bridge 1:45

G|--------------------------------------------------|
D|--------------------------------------------------| 
A|-22222222220----------44455555555554--------------|
E|------------0222222222--------------0222222000000-|

G|--------------------------------------------------|
D|-------------------------------------66666-77777--|
A|-55555-55555-55555-77777-99999-99999--------------| x2
E|--------------------------------------------------|

2:18

G|---------------------------6--6--6--6--9--9--9--9-|
D|---7--7--7--7--7--7--9--944-44-44-44-66-66-77-77--| 
A|-55-55-55-55-55-55-77-77--------------------------|
E|--------------------------------------------------|

G|---------------------------6--6--6--6-------------|
D|---7--7--7--7--7--7--9--944-44-44-44-666---777----| 
A|-55-55-55-55-55-55-77-77--------------------------|
E|--------------------------------------------------|

Chorus 2:34

G|--------------------------------------------------|
D|--------------------------------------------------|
A|-5----5-55---5----5-55-------------------------4--| x2
E|-------------------------2-----2-----5-5-5-5-7----|

Outro 2:52

G|--------------------------|
D|--------------------------| 
A|-55555555554--------------|
E|------------0222222000000-|

G|---------------------------|
D|---------------------------| 
A|-55555-55555-55555-4-5-----|
E|-----------------------0-2~|
Suggest correction
Give kudos to tab author, rate the tab!
1 2 3 4 5
comments
print report bad tab
guest
You may want to rate the tab now too:
select rating
Wanna post a correction for this tab? Suggest correction