Oops, an error
Loading. Please wait.

Safe To Say guitar pro

version 1
version 1

Whole song

Interactive

by Vanna
4,110 views 1 this week
3 commentsread comments
1 2 3 4 5
x 4
add to favorites
guitar tuner
Autoscroll
slow
fast
+/-
esc
set tempo
stop
"Safe To Say"
demo version
Play now

or get full version for Free

×
Get full version now!
Learn and play this song
in Tab Pro
Try for free

or get $10 off Welcome Bonus

Get welcome bonus
Get access to Tab Pro version of “Safe To Say”!
Tab Pro is a premium guitar tab service, available on PC, Mac, iOS and Android
TRY FOR FREE
Your download will start in 7 seconds
×
Like this song? We have more! Follow us on Facebook for daily tips, lessons and other guitar-related content.
To download “Safe To Say” Guitar Pro tab click button below
Please note that you must have Guitar Pro software installed on your
computer in order to view this file.
Suggest correction
comments
report bad tab
3 comments total.
0 reply
Saxens 66 Sep 20, 2010 05:49 AM

Great tab, however I think the riff is played like that:
------------------------------
-10-11-8-10-------------------
------------10---9---7--10-9-7
---------------7---7----------
------------------------------
------------------------------

0 reply
cwilder 10 Sep 29, 2010 06:15 PM

during the second breakdown.... it sounds right but I could be wrong

-----------------------------------
---------------------11-13---------
-14-15-12-14-10-12-9-------10-9----
--------------------------------12-
-----------------------------------
-----------------------------------

0 reply
Alpha_Wolf 268 Oct 06, 2013 09:50 PM

What douchebag rated this as two stars? It's worth at least 4... Great effort, OP.

guest
You may want to rate the tab now too:
select rating