Oops, an error
Loading. Please wait.

I Dont Believe In God intro tab

version 3
version 3

Intro

  • How Mattie plays it live. Sounds better as well.
  • More complete version with lyrics, others only have 2 chords.

Whole song

  • Simple song- most is a repeated verse with some gu... Show more
by vant
112 views 3 this week
no commentswrite comment
1 2 3 4 5
2 more votes to show rating
add to favorites
×
Save as Personal and add changes to this tab that will be seen only by you. Learn more ›
×
You can save this tab as Personal to edit and correct it or add notes. All changes will be seen only by you. Learn more »
launch autoscroll
font size
0
reset
how to read this tab
guitar tuner
edit
Autoscroll
slow
fast
+/-
esc
set tempo
stop
Author
Difficulty
About this tab version
More complete version with lyrics, others only have 2 chords. Was this info helpful? Yes No
e|---------------------------------|-------------------------------------|-|
B|---------------------------------|-------------------------------------|-|
G|---------------------------------|-------------------------------------|-|
D|-9-9-9-9-9-9-9-9-9-9-9-9-9-9-9-9-|-9-9-9-9-9-9-9-9-9-9-9-9--9--9--9--9-|-|
A|-7-7-7-7-7-7-7-7-7-7-7-7-7-7-7-7-|-7-7-7-7-7-7-7-7-7-7-7-7--7--7--7--7-|-|
E|-0-0-0-0-0-0-0-0-0-0-0-0-0-0-0-0-|-0-0-0-0-0-0-0-0-0-0-0-0-11-11-11-11-|-|
  

e|-------------------------------------|-------------------------------------|--|
B|-------------------------------------|-------------------------------------|--|
G|-------------------------------------|-------------------------------------|--|
D|-9-9-9-9-9-9-9-9-9-9-9-9--9--9--9--9-|-9-9-9-9-9-9-9-9-9-9-9-9--9--9--9--9-|--|
A|-7-7-7-7-7-7-7-7-7-7-7-7--7--7--7--7-|-7-7-7-7-7-7-7-7-7-7-7-7--7--7--7--7-|--|
E|-0-0-0-0-0-0-0-0-0-0-0-0-11-11-11-11-|-0-0-0-0-0-0-0-0-0-0-0-0-11-11-11-11-|--|
Some people dance, some people have fun. Some people fuck, some people shoot guns.


e|-------------------------------------|-------------------------------------|--|
B|-------------------------------------|-------------------------------------|--|
G|-------------------------------------|-------------------------------------|--|
D|-9-9-9-9-9-9-9-9-9-9-9-9--9--9--9--9-|-9-9-9-9-9-9-9-9-9-9-9-9--9--9--9--9-|--|
A|-7-7-7-7-7-7-7-7-7-7-7-7--7--7--7--7-|-7-7-7-7-7-7-7-7-7-7-7-7--7--7--7--7-|--|
E|-0-0-0-0-0-0-0-0-0-0-0-0-11-11-11-11-|-0-0-0-0-0-0-0-0-0-0-0-0-11-11-11-11-|--|
People shoot up just to feel something. Some people die, end with up with nothing.

e|-------------------------------------|-------------------------------------|--|
B|-------------------------------------|-------------------------------------|--|
G|-9-9-9-9-9-9-9-9-9-9-9-9--9--9--9--9-|-9-9-9-9-9-9-9-9-9-9-9-9--9--9--9--9-|--|
D|-7-7-7-7-7-7-7-7-7-7-7-7--7--7--7--7-|-7-7-7-7-7-7-7-7-7-7-7-7--7--7--7--7-|--|
A|-0-0-0-0-0-0-0-0-0-0-0-0-11-11-11-11-|-0-0-0-0-0-0-0-0-0-0-0-0-11-11-11-11-|--|
E|-------------------------------------|-------------------------------------|--|
Some take cocaine to provoke a feeling. Out of control, their blood’s on the ceiling.

e|---------------------------------|-----------------------------------|
B|---------------------------------|-----------------------------------|
G|---------------------------------|-----------------------------------|
D|-9-9-9-9-9-9-9-9------9--9--9--9-|-9-9-9-9-9-9-9-9------9--9--9--9---|
A|-7-7-7-7-7-7-7-7------7--7--7--7-|-7-7-7-7-7-7-7-7------7--7--7--7---|
E|-0-0-0-0-0-0-0-0-----11-11-11-11-|-0-0-0-0-0-0-0-0-----11-11-11-11---|
I put it out of mind.              Cos I don’t trust mankind.

e|-----------------------------|------|
B|-----------------------------|------|
G|-----------------------------|-8----|
D|-9-9-9-9-9-9-9-9-9-9-9-9-----|-9----|
A|-9-9-9-9-9-9-9-9-9-9-9-9-----|-9----|
E|-7-7-7-7-7-7-7-7-7-7-7-7-----|-7----|
I look to the stars.            Cos I don’t believe in God.

--------------------------
i'm not completely sure about this next part, all i know is that it's in Emajor,
so correct if you find anything better
--------------------------
 
e|------------------------|------------|
B|------------------------|-13-13--9-9-|
G|-13-13-13-13-11-11-11-9-|------------|
D|------------------------|------------|
A|------------------------|------------|
E|------------------------|------------|


e|------------------------|------------------|
B|------------------------|-14-12------------|
G|-13-13-13-13-11-11-11-9-|--------11b13r====|
D|------------------------|------------------|
A|------------------------|------------------|
E|------------------------|------------------|

e|------------------------|------------------|
B|------------------------|------------------|
G|-13-13-13-13-11-11-11-9-|------------9-9-9-|
D|------------------------|-------9-11-------|
A|------------------------|-9-h11------------|
E|------------------------|------------------|

e|------------------------|------------------|
B|------------------------|-17-14------------|
G|-13-13-13-13-11-11-11-9-|--------11b13r====|
D|------------------------|------------------|
A|------------------------|------------------|
E|------------------------|------------------|

e|-------------------|-------------|-------------------|-------------|----|
B|-------------------|-------9-9-9-|-------------------|-12-10-9-9-9-|----|
G|-13-13--11-11--9-9-|-13-11-9-9-9-|-13-13--11-11--9-9-|-13-11-9-9-9-|----|
D|-------------------|-------------|-------------------|-------------|----|
A|-------------------|-------------|-------------------|-------------|----|
E|-------------------|-------------|-------------------|-------------|----|

e|------------------------|-12-12--------|
B|------------------------|-14-12--------|
G|-13-13-13-13-11-11-11-9-|-------13b15--|
D|------------------------|--------------|
A|------------------------|--------------|
E|------------------------|--------------|

e|------------------------|-----------9-9----|
B|------------------------|-----------9-9----|
G|-13-13-13-13-11-11-11-9-|------9-11--------|
D|------------------------|-9-11-------------|
A|------------------------|------------------|
E|------------------------|------------------|

 
************************************

| b  Bend
| h  Hammer-on
| r  Bend release (if no number after the r, then release immediately)

************************************

            
            
Suggest correction
Creating personal tab
Creating personal tab
You can edit any tab online and save it as your Personal.

You can edit, replace or remove any tab part or add personal notes – all changes will be seen only by you.

Personal tabs can be accessed anytime from any device, even offline.
Learn more »
Give kudos to tab author, rate the tab!
1 2 3 4 5
comments
print report bad tab
guest
You may want to rate the tab now too:
select rating
Wanna post a correction for this tab? Suggest correction