Oops, an error
Loading. Please wait.

I Dont Believe In God tab

version 1
version 1

Whole song

  • Simple song- most is a repeated verse with some gu... Show more
by vant
262 views 3 this week
no commentswrite comment
1 2 3 4 5
2 more votes to show rating
add to favorites
×
Save as Personal and add changes to this tab that will be seen only by you. Learn more ›
×
You can save this tab as Personal to edit and correct it or add notes. All changes will be seen only by you. Learn more »
launch autoscroll
font size
0
reset
how to read this tab
guitar tuner
edit
Autoscroll
slow
fast
+/-
esc
set tempo
stop
Author
Difficulty
About this tab version
Simple song- most is a repeated verse with some guitar chord harmony accents on repeats. Was this info helpful? Yes No
[Intro/ Verse]
    played 4x during verse
e|---------------------------------|---------------------------------|
B|---------------------------------|---------------------------------|
G|---------------------------------|---------------------------------|
D|---------------------------------|---------------------------------|
A|-11--11--11--11--11--11--11--11--|-11--11--11--11------------------|
E|-0---0---0---0---0---0---0---0---|--0---0---0---0--11--11--11--11--|


  part 2, played 2x
e|---------------------------------|----------------------------------|
B|---------------------------------|----------------------------------|
G|---------------------------------|----------------------------------|
D|-11--11--11--11--11--11--11--11--|-11--11--11--11--11--11--11--11---|
A|-0---0---0---0---0---0---0---0---|-0---0---0---0---0---0---0---0----|
E|---------------------------------|----------------------------------|


  part 3, played 2x
e|---------------------------------|---------------------------------|
B|---------------------------------|---------------------------------|
G|---------------------------------|---------------------------------|
D|---------------------------------|---------------------------------|
A|-11--11--11--11--11--11--11--11--|---------------------------------|
E|-0---0---0---0---0---0---0---0---|---------------------11--11--11--|


[Verse Ending]
e|--------------------------|---------------------|----------------------------|
B|--------------------------|---------------------|----------------------------|
G|--------------------------|---------------------|----------------------------|
D|--------------------------|---------------------|-11-------------------------|
A|-9--9--9--9--9--9--9--9---|---------------------|-0--------------------------|
E|-7--7--7--7--7--7--7--7---|---------------------|----------------------------|




[Second Guitar Part]

First guitar repeats Verse, and second guitar adds something like this:

e|--------------------------------|--------------------12-------|
B|-12--12--12--12--10--10--10--9--|--------------9-----12-------|
G|-9---9---9---9---9---9---9---9--|--------------9-----9--------|
D|-9---9---9---9---9---9---9---9--|--------------9--------------|
A|--------------------------------|-----------------------------|
E|--------------------------------|-----------------------------|


Rest of the song is very similar, execpt for some slight strum rhythm changes.
 
The Chords are E  A  E  B  A





            
            
Suggest correction
Creating personal tab
Creating personal tab
You can edit any tab online and save it as your Personal.

You can edit, replace or remove any tab part or add personal notes – all changes will be seen only by you.

Personal tabs can be accessed anytime from any device, even offline.
Learn more »
Give kudos to tab author, rate the tab!
1 2 3 4 5
comments
print report bad tab
guest
You may want to rate the tab now too:
select rating
Wanna post a correction for this tab? Suggest correction