Oops, an error
Loading. Please wait.

Karma Seeker Tab

version 1
version 1

Whole song

  • Added parts for the rest of the song.
by vant
490 views 27 this week
3 commentsread comments
1 2 3 4 5
2 more votes to show rating
add to favorites
launch autoscroll
font size
0
reset
how to read this tab
guitar tuner
Autoscroll
slow
fast
+/-
esc
set tempo
stop
Help us to improve Ultimate-Guitar.com Take our survey!
×
Author
Difficulty
Tuning
intermediate
E A D G B E
About this tab version
Added parts for the rest of the song. Was this info helpful? Yes No
----------------------------------------------------------------- 
Karma Seeker - Vant
----------------------------------------------------------------- 
Tabbed by: Alex Perkins
Email:  
Tuning: E Standard


All timings are for this video: https://www.youtube.com/watch?v=NoP4kc03tFM

I will make a cover of this when i finish the tab, to provide a visual aid when learning.


[Intro(0.00)]

Listen for the strumming pattern, make sure the high notes ring out
when you strum. Keep playing this till 0.38.
e|--7----3----0--------------------------------------------------|
B|--7----3----0--------------------------------------------------|
G|--8----4----1--------------------------------------------------|
D|--9----5----2--------------------------------------------------|
A|--9----5----2--------------------------------------------------|
E|--7----3----0--------------------------------------------------|


[Lead Guitar in chorus: (0.38)]

e|---------------------------------------------------------------|
B|---------------------------------------------------------------|
G|---------------------------------------------------------------|
D|-12/11---12--11-9-7--------------------------------------------|
A|-10/9----10--9--7-5--------------------------------------------|
E|---------------------------------------------------------------|

(each time he plays that, there is a lick: This is at 0.43)

e|---------------------------------------------------------------|
B|---7b8b7-----10b12b10------------------------------------------|
G|---------------------------------------------------------------|
D|---------------------------------------------------------------|
A|---------------------------------------------------------------|
E|---------------------------------------------------------------|


[0.49]

(you play a slow bend up towards 12th fret but you let go to play the
chorus before you hit the next step.)
e|---------------------------------------------------------------|
B|--10b12--------------------------------------------------------|
G|---------------------------------------------------------------|
D|---------------------------------------------------------------|
A|---------------------------------------------------------------|
E|---------------------------------------------------------------|


[0.55]

e|----10b11-------------------/----------------------------------|
B|------------9---------------/----------------------------------|
G|----------------------------/----------------------------------|
D|----------------------------/----------------------------------|
A|----------------------------/----------------------------------|
E|----------------------------/----------------------------------|


[Bridge after first chorus (0.57)]
 
e|---------------------------------------------------------------|
B|---------------------------------------------------------------|
G|---------------------------------------------------------------|
D|---------------------------------------------------------------|
A|--2--4--2------------------------------------------------------|
E|------------3-3-3-4--------------------------------------------|


[Verse Lead: 1.04 - Slide into the first note. Play in the structure of 1, 2, 1 ,3]

1
e|---------------------------------------------------------------|
B|---------------------------------------------------------------|
G|---------------------------------------------------------------|
D|---------------------------------------------------------------|
A|-----5---5---5----5--7-----------------------------------------|
E|---7---7---7---7-----------------------------------------------|

2                                       3 - 1.09
e|---------------------------------/-----------------------------|
B|---------------------------------/-----------------------------|
G|---------------------------------/-----------------------------|
D|-------------------7-------------/-------7b9-------------------|
A|-----5---5---5---5---------------/------------5----------------|
E|---7---7---7---7-----------------/-----------------------------|


[1.17]

e|---------------------------------------------------------------|
B|---------------------------------------------------------------|
G|---------------------------------------------------------------|
D|-----12------12----12-----12---14------------------------------|
A|--14----14------14----14---------------------------------------|
E|---------------------------------------------------------------|
                                                1.21
e|---------------------------------------/-----------------------|
B|---------------------------------------/-----------------------|
G|-------------------------------14------/------14b15---11-------|
D|-----12------12----12-----12-----------/-----------------------|
A|--14----14------14----14---------------/-----------------------|
E|---------------------------------------/-----------------------|


[1.29 - at 1.30 there is a lead line which i cant hear well enough to tab
out]

e|---3----0---0--------------------------------------------------|
B|---3----2---0--------------------------------------------------|
G|---4----2---1--------------------------------------------------|
D|---5----2---2--------------------------------------------------|
A|---5----0---2--------------------------------------------------|
E|---3--------0--------------------------------------------------|


[2.08 - Palm mute and listen for the changes.]

e|---------------------------------------------------------------|
B|---------------------------------------------------------------|
G|---------------------------------------------------------------|
D|---------------------------------------------------------------|
A|---7---7--------0----------------------------------------------|
E|-----------3----------0----------------------------------------|


I will work on the ending licks for the lead in the coming weeks, 
if anyone works them out before me please add them in or comment them.
e|---------------------------------------------------------------|
B|---------------------------------------------------------------|
G|---------------------------------------------------------------|
D|---------------------------------------------------------------|
A|---------------------------------------------------------------|
E|---------------------------------------------------------------|


************************************

| /  slide up
| \  slide down
| h  hammer-on
| p  pull-off
| ~  vibrato
| +  harmonic
| x  Mute note

************************************
Suggest correction
Give kudos to tab author, rate the tab!
1 2 3 4 5
comments
print report bad tab
3 comments total.
0 reply
meertenseppe 15 Oct 03, 2016 03:51 PM

when is the youtube cover coming?

+1 reply
epic.squids 128 Oct 06, 2016 09:56 PM

I can do it in the next week if you want.

0 reply
meertenseppe 15 Oct 07, 2016 09:15 AM

would be cool, thanks

guest
You may want to rate the tab now too:
select rating
Wanna post a correction for this tab? Suggest correction