Oops, an error
Loading. Please wait.

Parking Lot Tab

version 2
version 2

Whole song

  • This song is pretty straightforward, nothing trick... Show more
by vant
76 views 9 this week
no commentswrite comment
1 2 3 4 5
3 more votes to show rating
add to favorites
launch autoscroll
font size
0
reset
how to read this tab
guitar tuner
Autoscroll
slow
fast
+/-
esc
set tempo
stop
Help us to improve Ultimate-Guitar.com Take our survey!
×
Author
Difficulty
novice
About this tab version
This song is pretty straightforward, nothing tricky. This is tabbed out for one guitar if you are playing yourself. The other guitar has some notes played over this one throughout and plays an A bar chord and an f# bar chord over the solo if you want to play both. I am pretty sure this is all correct, although some chords may be played higher or lower up the neck, which doesn't matter if you're playing power chords. Play power chords on electric but play the whole chord if your going to play it on acoustic. Was this info helpful? Yes No
[Verse]

e|-------------------------------5-X-2-2-X-5-X-5-X-2-2------------------------|
B|-X-X-X-X-X-X-6-X-X-X-7-X-X-X-7-5-X-2-2-X-5-X-5-X-2-2------------------------|
G|-X-X-X-X-X-X-6-X-X-X-7-X-X-X-7-6-X-3-3-X-6-X-6-X-6-6-----------x2-----------|
D|-X-X-X-X-X-X-6-X-X-X-7-X-X-X-7-7-X-7-7-X-7-X-7-X-7-7------------------------|
A|-X-X-X-X-X-X-4-X-X-X-5-X-X-X-5-7-X-7-7-X-7-X-7-X-7-7------------------------|
E|-------------------------------5-X-7-7-X-7-X-7-X-7-7------------------------|
I'm a vampire, how'd you find her. 


[Chorus]

e|---------------X-X-X-7-X-X-X-7-X-X-X-5-X-X-X-5-X-X-X-2-X-X-X-2-------------|
B|-X-X-7-X-X-X-7-X-X-X-7-X-X-X-7-X-X-X-5-X-X-X-5-X-X-X-2-X-X-X-2-------------|
G|-X-X-7-X-X-X-7-X-X-X-7-X-X-X-7-X-X-X-6-X-X-X-6-X-X-X-3-X-X-X-3-------x4----|
D|-X-X-7-X-X-X-7-X-X-X-9-X-X-X-9-X-X-X-7-X-X-X-7-X-X-X-4-X-X-X-4-------------|
A|-X-X-5-X-X-X-5-X-X-X-9-X-X-X-9-X-X-X-7-X-X-X-7-X-X-X-4-X-X-X-4-------------|
E|---------------X-X-X-7-X-X-X-7-X-X-X-5-X-X-X-5-X-X-X-2-X-X-X-2-------------|

Like a gunshot in a parking lot, no one heard, no one saw, I did nothing wrong
Nothing wrong, I really wish I did something. Wait a minute, wait a minute, 
Wait a minute cause your heart's not in it. Wait a minute, wait a minute, wait
A minute cause your heart's not in it.

[Guitar]
e|-5-X-2-2-X-5-X-5-X-2-2-X-5-5-X-2-2-X-0-0-2-2-------------------------------|
B|-5-X-2-2-X-5-X-5-X-2-2-X-5-5-X-2-2-X-0-0-2-2-------------------------------|
G|-6-X-3-3-X-6-X-6-X-3-3-X-6-6-X-3-3-X-1-1-3-3-------------x2----------------|
D|-7-X-4-4-X-7-X-7-X-4-4-X-7-7-X-4-4-X-2-2-4-4-------------------------------|
A|-7-X-4-4-X-7-X-7-X-4-4-X-7-7-X-4-4-X-2-2-4-4-------------------------------|
E|-5-X-2-2-X-5-X-5-X-2-2-X-5-5-X-2-2-X-0-0-2-2-------------------------------|


[Verse}

e|-9--9--9--9--9--9--9--9--10-10-10-10-10-10-10-10-5-5-5-5-5-5-5-5-5-5-5-5-5-5-5-5|
B|-9--9--9--9--9--9--9--9--10-10-10-10-10-10-10-10-5-5-5-5-5-5-5-5-5-5-5-5-5-5-5-5|
G|-10-10-10-10-10-10-10-10-11-11-11-11-11-11-11-11-6-6-6-6-6-6-6-6-6-6-6-6-6-6-6-6|
D|-11-11-11-11-11-11-11-11-12-12-12-12-12-12-12-12-7-7-7-7-7-7-7-7-7-7-7-7-7-7-7-7|
A|-11-11-11-11-11-11-11-11-12-12-12-12-12-12-12-12-7-7-7-7-7-7-7-7-7-7-7-7-7-7-7-7|
E|-9--9--9--9--9--9--9--9--10-10-10-10-10-10-10-10-5-5-5-5-5-5-5-5-5-5-5-5-5-5-5-5|

e|-9--9--9--9--9--9--9--9--10-10-10-10-10-10-10-10--------------------------------|
B|-9--9--9--9--9--9--9--9--10-10-10-10-10-10-10-10--------------------------------|          After this, play
G|-10-10-10-10-10-10-10-10-11-11-11-11-11-11-11-11--------------------------------|          The guitar part
D|-11-11-11-11-11-11-11-11-12-12-12-12-12-12-12-12--------------------------------|          Above once. 
A|-11-11-11-11-11-11-11-11-12-12-12-12-12-12-12-12--------------------------------|
E|-9--9--9--9--9--9--9--9--10-10-10-10-10-10-10-10--------------------------------|

When you find her, she look so pretty like a kick in the teeth, oh darling. Just admire her. 

[Chorus]

e|---------------X-X-X-7-X-X-X-7-X-X-X-5-X-X-X-5-X-X-X-2-X-X-X-2-------------|
B|-X-X-7-X-X-X-7-X-X-X-7-X-X-X-7-X-X-X-5-X-X-X-5-X-X-X-2-X-X-X-2-------------|             The 5th and 6th 
G|-X-X-7-X-X-X-7-X-X-X-7-X-X-X-7-X-X-X-6-X-X-X-6-X-X-X-3-X-X-X-3-------x6----|             Time through he 
D|-X-X-7-X-X-X-7-X-X-X-9-X-X-X-9-X-X-X-7-X-X-X-7-X-X-X-4-X-X-X-4-------------|             Doesn't play the 
A|-X-X-5-X-X-X-5-X-X-X-9-X-X-X-9-X-X-X-7-X-X-X-7-X-X-X-4-X-X-X-4-------------|             Dead notes. 
E|---------------X-X-X-7-X-X-X-7-X-X-X-5-X-X-X-5-X-X-X-2-X-X-X-2-------------|

Like a gunshot in a parking lot, no one heard, no one saw, I did nothing wrong
Nothing wrong, I really wish I did something. Wait a minute, wait a minute, 
Wait a minute cause your heart's not in it. Wait a minute, wait a minute, wait
A minute cause your heart's not in it. Wait a minute, wait a minute, wait a minute
Cause your heart's not in it. Wait a minute, wait a minute, wait a minute cause 
Your heart's not 

[Solo]

e|-------------------9-12-9-9-12-9----------------------------------------------------------12---|
B|-12-10-12-10-12-10---------------12b14r12----12-12b14r12-10-12-12b14r12-10-12-12b14r12-14----14|
G|------------------------------------------14---------------------------------------------------|
D|-----------------------------------------------------------------------------------------------|
A|-----------------------------------------------------------------------------------------------|
E|-----------------------------------------------------------------------------------------------|

e|---------------------------------------14------------------------------------------------------|
B|-12N-10-10-10-12N-10-10-10-12-12-14-14---------------------------------------------------------|
G|-----------------------------------------------------------------------------------------------|
D|-----------------------------------------------------------------------------------------------|
A|-----------------------------------------------------------------------------------------------|
E|-----------------------------------------------------------------------------------------------|

[Verse]
e|-5-------7-------5-------2------------------------------------------------|
B|-7-------7-------5-------2------------------------------------------------|
G|-7-------7-------6-------3--------x4--------------------------------------|
D|-7-------9-------7-------4------------------------------------------------|
A|-5-------9-------7-------4------------------------------------------------|
E|---------7-------5-------2------------------------------------------------|

If you're not ready then I'm not ready just keep things steady just keep things cool. 
If you're not ready then I'm not ready just keep things steady just keep things cool. 
If you're not ready then I'm not ready just keep things steady just keep things cool. 


[Outro]

e|-5-X-2-2-X-5-X-5-X-2-2-X-5-5-X-2-2-X-0-0-2-2-------------------------------|
B|-5-X-2-2-X-5-X-5-X-2-2-X-5-5-X-2-2-X-0-0-2-2-------------------------------|
G|-6-X-3-3-X-6-X-6-X-3-3-X-6-6-X-3-3-X-1-1-3-3-------------x2----------------|
D|-7-X-4-4-X-7-X-7-X-4-4-X-7-7-X-4-4-X-2-2-4-4-------------------------------|
A|-7-X-4-4-X-7-X-7-X-4-4-X-7-7-X-4-4-X-2-2-4-4-------------------------------|
E|-5-X-2-2-X-5-X-5-X-2-2-X-5-5-X-2-2-X-0-0-2-2-------------------------------|




This solo plays over some of the last verse and the Outro, I recommend just 
Playing the chords if you're playing by yourself, but here it is if you want
To play it. 

e|-14-14-14-14-14-12-12---------------------------------------------------------------------|
B|----------------------14-14-14-14-14-14-12-12-12/14-14-14-14-14-14\12-12-10-10-10-10-10---|
G|----------------------------------------------------------------------------------------11|    x2
D|------------------------------------------------------------------------------------------|
A|------------------------------------------------------------------------------------------|
E|------------------------------------------------------------------------------------------|

e|-14N-16-16-16-14N-16-16-16-17-------------------------------------------------------------|
B|------------------------------------------------------------------------------------------|
G|------------------------------------------------------------------------------------------|
D|------------------------------------------------------------------------------------------|
A|------------------------------------------------------------------------------------------|
E|------------------------------------------------------------------------------------------|
************************************

| x   Dead note
| g   Grace note
| (n) Ghost note
| h   Hammer-on
| p   Pull-off
| r   Release
| >   Accented note
| t   Tapping
| b   Bend
| br  Bend release
| pb  Pre-bend
| pbr Pre-bend release
| /   Slide up
| \   Slide down
| ~   Vibrato
| s   Slap
| P   Pop
| PM  Palm mute
| TR  Trill
| N   Tremolo

************************************
Suggest correction
Give kudos to tab author, rate the tab!
1 2 3 4 5
comments
print report bad tab
guest
You may want to rate the tab now too:
select rating
Wanna post a correction for this tab? Suggest correction