Oops, an error
Loading. Please wait.

Peace Love Tab

by vant
112 views 21 this week
no commentswrite comment
1 2 3 4 5
1 last vote to show rating
add to favorites
launch autoscroll
font size
0
reset
how to read this tab
guitar tuner
Autoscroll
slow
fast
+/-
esc
set tempo
stop
Help us to improve Ultimate-Guitar.com Take our survey!
×
Author
Difficulty
novice
PEACE AND LOVE by VANT

 Corrections are welcome.

[Intro]

e|-10----9----10----9----7---------------------------------------------------|
B|-13b---12b--13b---12b--10b-------------------------------------------------|
G|---------------------------------------------------------------------------|
D|---------------------------------------------------------------------------|
A|---------------------------------------------------------------------------|
E|---------------------------------------------------------------------------|

e|--------------------------|-------------------------------------------------|
B|--------------------------|-------------------------------------------------|
G|-7--7-7--7-7--------------|-------------------------------------------------|
D|-7--7-7--7-7--9--9-9--9-9-|-4--4-4--4-4--5--5-5--5-5------------------------|X2
A|-5--5-5--5-5--9--9-9--9-9-|-4--4-4--4-4--5--5-5--5-5------------------------|
E|--------------7--7-7--7-7-|-2--2-2--2-2--3--3-3--3-3------------------------|


[Verse] NO GUITAR 


[Chorus] " We need peace and love"

e|------------------------------|
B|------------------------------|
G|--7--9--11-11-11-11-11-11-----|
D|--7--9--11-11-11-11-11-11-----|X2           (11= eleventh fret)
A|--5--7--9--9--9--9--9--9------|
E|------------------------------|

e|------------------------------|
B|------------------------------|
G|------------------------------|
D|--5--7--9--9--9-9-9-9---------|X2
A|--5--7--9--9--9-9-9-9---------|
E|--3--5--7--7--7-7-7-7---------|

e|------------------------------|
B|------------------------------|
G|--7--9-11-11-11-11-11-11------|
D|--7--9-11-11-11-11-11-11------|X2            (11= eleventh fret)
A|--5--7-9--9--9--9--9--9-------|
E|------------------------------|

e|------------------------------|
B|------------------------------|
G|------------------------------|
D|--5--7--9--9--9-9-9-9---------|X2
A|--5--7--9--9--9-9-9-9---------|
E|--3--5--7--7--7-7-7-7---------|

[Post Chorus]

e|-----------------------|----------------------------------------------------|
B|-----------------------|----------------------------------------------------|
G|-----------------------|----------------------------------------------------|
D|--9----9-11-9---7--4---|----2-4---4/7---2-4---------------------------------|X2
A|--7----7-9--7---5--2---|----0-2---2/5---0-4---------------------------------|
E|--7----7-9--7---5--2---|----0-2---2/5---0-2---------------------------------|

[Verse 2]

e|----------------------------------|------------------------------------------|
B|----------------------------------|------------------------------------------|
G|--7-7-7-7-7-7-7-7-----------------|------------------------------------------|
D|--7-7-7-7-7-7-7-7-9-9-9-9-9-9-9-9-|-4-4-4-4-4-4-4-4-5-5-5-5-5-5-5-5----------|X2 
A|--5-5-5-5-5-5-5-5-9-9-9-9-9-9-9-9-|-4-4-4-4-4-4-4-4-5-5-5-5-5-5-5-5----------|  
E|------------------7-7-7-7-7-7-7-7-|-2-2-2-2-2-2-2-2-3-3-3-3-3-3-3-3----------| 

e|------------------------------|----------------------------------------------|
B|------------------------------|----------------------------------------------|
G|--7--7-7--7-7-7---------------|----------------------------------------------|
D|--7--7-7--7-7-7-9--9-9--9-9-9-|-4--4-4--4-4-4-5--5-5--5-5-5------------------|X2 
A|--5--5-5--5-5-5-9--9-9--9-9-9-|-4--4-4--4-4-4-5--5-5--5-5-5------------------|  
E|----------------7--7-7--7-7-7-|-2--2-2--2-2-2-3--3-3--3-3-3------------------| 

[Chorus 2] " We need peace and love"

e|------------------------------|
B|------------------------------|
G|--7-7/9--11-11-11-11-11-11----|
D|--7-7/9--11-11-11-11-11-11----|X2         (11= eleventh fret)
A|--5-5/7--9--9--9--9--9--9-----|
E|------------------------------|

e|------------------------------|
B|------------------------------|
G|------------------------------|
D|--5-/7--9--9--9-9-9-9---------|X2
A|--5-/7--9--9--9-9-9-9---------|
E|--3-/5--7--7--7-7-7-7---------|

e|------------------------------|
B|------------------------------|
G|--7-7/9--11-11-11-11-11-11----|
D|--7-7/9--11-11-11-11-11-11----|X2         (11= eleventh fret)
A|--5-5/7--9--9--9--9--9--9-----|
E|------------------------------|


e|------------------------------|
B|------------------------------|
G|------------------------------|
D|--5-/7--9--9--9-9-9-9---------|X2
A|--5-/7--9--9--9-9-9-9---------|
E|--3-/5--7--7--7-7-7-7---------| 

[Post Chorus 2]

e|---------------------------|------------------------------------|
B|---------------------------|------------------------------------|
G|9-9-9-9-9-9-9-9-9--11-9----|------------------------------------|
D|9-9-9-9-9-9-9-9-9--11-9-12-|-9-9-9-9-9-9-9-9-9-9-9-9-9-9-9-9----|
A|7-7-7-7-7-7-7-7-7--9--7-12-|-9-9-9-9-9-9-9-9-9-9-9-9-9-9-9-9----|
E|------------------------10-|-7-7-7-7-7-7-7-7-7-7-7-7-7-7-7-7----|

e|--------------------|-------------------------------------------|
B|--------------------|-------------------------------------------|
G|--------------------|-------------------------------------------|
D|7-9--9-9-9-9-9-9-12-|-12-12-12-12-12-7-9--9-9-9-9-9-9-9-9-9-9-9-|
A|7-9--9-9-9-9-9-9-12-|-12-12-12-12-12-7-9--9-9-9-9-9-9-9-9-9-9-9-|
E|5-7--7-7-7-7-7-7-10-|-10-10-10-10-10-5-7--7-7-7-7-7-7-7-7-7-7-7-|


Can't work out the rest. If anyone can then feel free to add it in.
************************************

| x   Dead note
| b   Bend
| /   Slide up
| \   Slide down

************************************
Suggest correction
Give kudos to tab author, rate the tab!
1 2 3 4 5
comments
print report bad tab
guest
You may want to rate the tab now too:
select rating
Wanna post a correction for this tab? Suggest correction