Oops, an error
Loading. Please wait.

Bajo Palabra bass

version 1
version 1

Whole song

Interactive

by Vantroi
29 views 1 this week
no commentswrite comment
1 2 3 4 5
3 more votes to show rating
add to favorites
×
Save as Personal and add changes to this tab that will be seen only by you. Learn more ›
×
You can save this tab as Personal to edit and correct it or add notes. All changes will be seen only by you. Learn more »
launch autoscroll
font size
0
reset
guitar tuner
edit
Autoscroll
slow
fast
+/-
esc
set tempo
stop
INTRO

G||--------------|--------------|
D||--------------|--------------|
A||----6----6----|--6--6--6--6--|
E||--------------|--------------|

Con guitarra

|---------|---------|---------|---------|---------|---------|--------|
|---------|---------|---------|---------|---------|---------|--------|
|---------|---------|---------|---------|---------|---7-6-4-|-2------|
|-4-4-4-0-|-4-4-4-0-|-2-2-2-0-|-2-2-2-0-|-0-0-0-0-|-0-------|--------|


Asfixiado y con dolor, me deprime
|-------------|----------|----------|----------|----------|
|2-2-2-4-2----|----------|----------|----------|----------|
|---------4-0-|-22222222-|-22222222-|----------|----------|
|------------------------|----------|-22222222-|-22222222-|

Aquí no existe el valor de quien lo mostró.
|----------|----------|----------|----------|
|----------|----------|----------|----------|
|----------|----------|----------|----------|
|-44444444-|-44444444-|-22222222-|-22222222-|

Casi casi, suplicando por favor
|----------|--------|----------|---------|
|--------2-|-222222-|----------|---------|
|-2-22222--|--------|----------|------2--|
|----------|--------|-2-222222-|-22224-4-|

Y en el sur zapata revivió.
|----------|--------|----------|---------|-----4-6-4-----|
|--------2-|-2-22222|-6-666664-|-4-44444-|-4-6-------6-4-|
|-2-22222--|--------|----------|---------|---------------|
|----------|--------|----------|---------|---------------|

Prefiero seguir y enfrentarme cuerpo a cuerpo no es nada fácil para mí.
|----------|-----------|----------|----------|----------|--------|
|----------|-----------|----------|----------|----------|--------|
|----------|-----6-7-9-|--------9-|-9-999999-|----------|-2------|
|-0-000000-|-000-------|-7-77777--|----------|-4-444444-|------2-|


La vida es así, para mi esto no es un juego, Ahora estoy junto a ti.
|----------|-----------|----------|----------|----------|-----------|
|----------|-----------|----------|----------|----------|-----------|
|----------|-----7-6-4-|--------9-|-9-999999-|----------|-2---------|
|-0-000000-|-000-------|-7-77777--|----------|-4-444444-|---2--222--|

 Musica:
|----------|---------|------------|----------|--------------|
|----------|---------|------------|----------|--------------|
|----------|---------|----6--6-6--|----------|-----6--6-6---|
|-22222222-|-6666666-|4-4---------|-6-666666-|-4-4--------0-|


|----------|---------|
|----------|---------|
|----------|---------|
|-2-222222-|-222224--|

Ahora hay mucha soledad
Hoy hay muchos pueblos destruidos.
Si estas pensando en recular,
¡ qué esperas siempre has sido el mismo !
Cada quien con su cada cual...
No perdono pero si te olvido,

|----------|---------|----------|---------|
|----------|---------|----------|---------|
|----------|---------|----------|-4-------| x3
|-6-666666-|-2-222222|-6-666666-|----4----|

Vale la pena hoy morir Arriesgandolo todo por ti.

|----------|----------|----------|---------|----------|
|----------|----------|----------|---------|----------|
|----------|----------|----------|---------|----------|
|-6-666666-|-2-222222-|-6-666666-|-4-444444|-4-444444-|

                       Ahora no me encierro,      Aire y sexo quiero!
|----------|----------|----------|---------|----------|---------|
|----------|----------|----------|---------|----------|---------|
|-6-666666-|-6-666666-|----------|---------|----------|-2-------|
|----------|----------|-0-000002-|-2-222222|-4-444444-|---2-2-2-|

Ahora todo me da igual.
----------|---------|---------|----------|----------|---------|
----------|---------|---------|----------|--------2-|-2-22222-|
----------|---------|---------|----------|-2-22222--|---------|
-4-444444-|-00000000|-22222222|-22222222-|----------|---------|


Casi casi, suplicando por favor
|----------|--------|----------|---------|
|--------2-|-222222-|----------|---------|
|-2-22222--|--------|----------|------2--|
|----------|--------|-2-222222-|-22224-4-|

Y en el sur zapata revivió.
|----------|--------|----------|---------|-----4-6-4-----|
|--------2-|-2-22222|-6-666664-|-4-44444-|-4-6-------6-4-|
|-2-22222--|--------|----------|---------|---------------|
|----------|--------|----------|---------|---------------|

Prefiero seguir y enfrentarme cuerpo a cuerpo no es nada fácil para mí.
|----------|-----------|----------|----------|----------|--------|
|----------|-----------|----------|----------|----------|--------|
|----------|-----6-7-9-|--------9-|-9-999999-|----------|-2------|
|-0-000000-|-000-------|-7-77777--|----------|-4-444444-|------2-|


La vida es así, para mi esto no es un juego, Ahora estoy junto a ti.
|----------|-----------|----------|----------|----------|-----------|
|----------|-----------|----------|----------|----------|-----------|
|----------|-----7-6-4-|--------9-|-9-999999-|----------|-2---------|
|-0-000000-|-000-------|-7-77777--|----------|-4-444444-|---2--222--|


Musica 2:
|----------|-----|----|----------|----------|----------|----------
|----------|-----|----|----------|----------|----------|----------
|----------|--2--|----|----------|----------|----------|---6-4----|
|-22222222-|-----|-2--|-4-44-442-|-4-4444-2-|-4-4444-2-|-4-4---6--|


Lo mismo que al principio que dice (con guitarra)

|---------|---------|---------|---------|---------|---------|--------|
|---------|---------|---------|---------|---------|---------|--------|
|---------|---------|---------|---------|---------|---7-6-4-|-2------|
|-4-4-4-0-|-4-4-4-0-|-2-2-2-0-|-2-2-2-0-|-0-0-0-0-|-0-------|--------|

Casi casi, suplicando por favor
|----------|--------|----------|---------|
|--------2-|-222222-|----------|---------|
|-2-22222--|--------|----------|------2--|
|----------|--------|-2-222222-|-22224-4-|

Y en el sur zapata revivió.
|----------|--------|----------|---------|-----4-6-4-----|
|--------2-|-2-22222|-6-666664-|-4-44444-|-4-6-------6-4-|
|-2-22222--|--------|----------|---------|---------------|
|----------|--------|----------|---------|---------------|

Prefiero seguir y enfrentarme cuerpo a cuerpo no es nada fácil para mí.
|----------|-----------|----------|----------|----------|--------|
|----------|-----------|----------|----------|----------|--------|
|----------|-----6-7-9-|--------9-|-9-999999-|----------|-2------|
|-0-000000-|-000-------|-7-77777--|----------|-4-444444-|------2-|


La vida es así, para mi esto no es un juego, Ahora estoy junto a ti.
|----------|-----------|----------|----------|----------|-----------|
|----------|-----------|----------|----------|----------|-----------|
|----------|-----7-6-4-|--------9-|-9-999999-|----------|-2---------|
|-0-000000-|-000-------|-7-77777--|----------|-4-444444-|---2--222--|

            
            
Suggest correction
Creating personal tab
Creating personal tab
You can edit any tab online and save it as your Personal.

You can edit, replace or remove any tab part or add personal notes – all changes will be seen only by you.

Personal tabs can be accessed anytime from any device, even offline.
Learn more »
Give kudos to tab author, rate the tab!
1 2 3 4 5
comments
print report bad tab
guest
Wanna post a correction for this tab? Suggest correction