Oops, an error
Loading. Please wait.

Kalla Mig chords

by Vapnet
1,324 views 18 this week
no commentswrite comment
1 2 3 4 5
1 last vote to show rating
add to favorites
×
Save as Personal and add changes to this tab that will be seen only by you. Learn more ›
×
You can save this tab as Personal to edit and correct it or add notes. All changes will be seen only by you. Learn more »
launch autoscroll
font size
0
reset
transpose
0
reset
display chords
guitar tuner
edit
Autoscroll
slow
fast
+/-
esc
set tempo
stop
Strumming
There is no strumming pattern for this song yet. and get +5 IQ
[Intro]

    D                   Bm
e|--3--2--3-3-2-2-2--|--10-10-10-9--9--9--7--7--7--|
B|--3--3--3-3-3-3-3--|--7--7--7--7--7--7--7--7--7--|
G|--2--2--2-2-2-2-2--|--7--7--7--7--7--7--7--7--7--|
D|-------------------|-----------------------------|
A|-------------------|-----------------------------|
E|-------------------|-----------------------------|

    F#m                           G
e|--2--2--2---5--5--5-2--2--2--|--7--7--7--5--5--5--3--3--3--|
B|--2--2--2---2--2--2-2--2--2--|--3--3--3--3--3--3--3--3--3--|
G|--2--2--2---2--2--2-2--2--2--|--4--4--4--4--4--4--4--4--4--|
D|-----------------------------|-----------------------------|
A|-----------------------------|-----------------------------|
E|-----------------------------|-----------------------------|


[Verse 1]

D          Bm          F#m
 min dagbok den blev stulen
       G    
dom skrattar åt mig nu
D        Bm        F#m            
 Internet gör mig känd
    G                     A
de laddar ner mig fil för fil


[Refrain]

               Bm
så dum som jag är 
                  G
kan jag inte förstå
                     D
hur jag ska bära mig åt
               A
för allt blir fel
                Bm
och nu vet alla om
                 G
vad jag sa till dig
                D
och nu vet alla om


[Post-Chorus 1]

A       
vad du sa
B
vad du sa


[Verse 2]

D          Bm          F#m
För du är med, sidan 3
       G    
och fram till 42
D          Bm          F#m
ett citat det du sa
 G                     A
va elakt men så uppenbart


[Refrain]

                  Bm
så simpel som jag är
                  G
kan jag inte förstå
                  D
hur jag ska bära mig
               A
för allt blir fel
                  Bm
och hur du ser på mig
                G
stämmer ganska bra
                    D
med hur jag ser på mig

(same chords progression)

så kalla mig cp
kalla mig bög
det kanske är fel
men en bra metafor


[Post-Chorus 2]

A
för den jag är
B
det jag är


[Solo]

D Bm F#m G (x2)

E|--------10-------14-9-9-9-10---------------|
B|--10-12----10-12-------------12-10-8-8-7-3-| x2.. sluta andra gången på A på bsträngen.. //mats
G|-------------------------------------------|
D|-------------------------------------------|
A|-------------------------------------------|
E|-------------------------------------------|


[Refrain]

                  Bm
så simpel som jag är
                  G
kan jag inte förstå
                  D
hur jag ska bära mig
               A
för allt blir fel
                  Bm
och hur du ser på mig
                G
stämmer ganska bra
                    D
med hur jag ser på mig

(same chords progression)

så kalla mig cp
kalla mig bög
det kanske är fel
men en bra metafor


[Solo]

A  Bm G D (x2)


[Refrain]

                  Bm
så simpel som jag är
                  G
kan jag inte förstå
                  D
hur jag ska bära mig
               A
för allt blir fel
                  Bm
och hur du ser på mig
                G
stämmer ganska bra
                    D
med hur jag ser på mig

(same chords progression)

så kalla mig cp
kalla mig bög
så kalla mig cp
kalla mig bög


[Solo]

A Bm G D (x2)


[Refrain]

               Bm
så dum som jag är
                  G
kan jag inte förstå
                     D
hur jag ska bära mig åt
             A
så kalla mig cp
           Bm
kalla mig bög
             G
så kalla mig cp
           D
kalla mig bög

            
            
Suggest correction
Creating personal tab
Creating personal tab
You can edit any tab online and save it as your Personal.

You can edit, replace or remove any tab part or add personal notes – all changes will be seen only by you.

Personal tabs can be accessed anytime from any device, even offline.
Learn more »
Give kudos to tab author, rate the tab!
1 2 3 4 5
comments
print report bad tab
guest
You may want to rate the tab now too:
select rating
Wanna post a correction for this tab? Suggest correction